liad?!?!

von antimaniax, 26.07.04.

  1. antimaniax

    antimaniax Registrierter Benutzer

    Im Board seit:
    26.07.04
    Zuletzt hier:
    6.03.08
    Beiträge:
    54
    Ort:
    zeltweg
    Zustimmungen:
    0
    Kekse:
    31
    Erstellt: 26.07.04   #1
    i hob a froge i spü seit ca. 1 monat und lerns ma selbst und do hob i ma gedocht spüma amoi a lied! :) und dan hob i a lied gnomman von den beatsteaks! i frog mi wie laung ihr brauchts um des lied flüssig spielen zu können!

    Beatsteaks - Why You Not

    riff a (intro + verse)
    E--------------------------------------------------------
    B--------------------------------------------------------
    G--------------------------------------------------------
    D--------------------------------------------------------
    A---3-3-3-3--3-6-6---6-9-9--9----------------------------
    E---1-1-1-1--1-4-4---4-7-7--7----------------------------

    fucking religion is a bloody trail,
    a promise which will fail,
    it's the way of torture the way of pain,
    desease in your brain

    they say the church's poor but the church's rich,
    more rich than you know
    for money they protect your soul
    for a heaven you don't know

    riff b
    E---------------------------------------------------------------------
    B---------------------------------------------------------------------
    G---------------------------------------------------------------------
    D-------------------------------------6-6-6-6-6-6-6-------------------
    A---3-3-3-3-3-3-3-3-3-6-6-6-6-6-6-6-6-4-4-4-4-4-4-4-8---8-9-8-6-3-----
    E---1-1-1-1-1-1-1-1-1-4-4-4-4-4-4-4-4---------------6---6-7-6-4-1-----

    why you not think about what you believe in?
    why you do submit yourself ?
    why you don't think about what you can trust ?

    riff c
    E---------------------------------------------------------------------
    B---------------------------------------------------------------------
    G---------------------------------------------------------------------
    D-------------------------------------6-6-6-6-6-6-6-------------------
    A---3-3-3-3-3-3-3-3-3-6-6-6-6-6-6-6-6-4-4-4-4-4-4-4-8-8-8-------------
    E---1-1-1-1-1-1-1-1-1-4-4-4-4-4-4-4-4---------------6-6-6-------------

    why you undermine yourself ? why you not

    riff d (chorus)
    E---------------------------------------------------------------------
    B---------------------------------------------------------------------
    G---------------------------------------------------------------------
    D---------------------------------------------------------------------
    A---3--3-3-8-6-6--6--5--5-5-5-6-6-8-----------------------------------
    E---1--1-1-6-4-4--4--3--3-3-3-4-4-6-----------------------------------

    destroy religion in you head
    there is a live before death !
    destroy religion in you head
    there is a live before death !

    (riff a) "interlude" , just like the intro

    (riff a)
    freedom of confidence is only a word,
    why it doesn't count for all ?
    why they abuse the faith of the people
    for ignorance about it all ?

    war - in the name of religion,
    wrong gods - absurd positions
    forbidden - to protect yourself
    and AIDS they say is a punishment of god!

    (riff b)
    why you not think about what you believe in?
    why you do submit yourself ?
    why you don't think about what you can trust ?

    why you undermine yourself ?
    why you not

    (riff c)
    destroy religion in you head
    there is a live before death !
    destroy religion in you head
    there is a live before death !

    (riff a) outro


    i find es schaut net schwer aus und glaubs würd i des ah schnell schoffn?!?!

    antimaniax :cool:
     
  2. KILLKILLKILL

    KILLKILLKILL Registrierter Benutzer

    Im Board seit:
    28.06.04
    Zuletzt hier:
    25.12.05
    Beiträge:
    314
    Ort:
    Flensburg
    Zustimmungen:
    0
    Kekse:
    10
    Erstellt: 26.07.04   #2
    ik weit net wat da schall,aba ik glöve dat is net so schwor...probär dat mol drei vär mol und löb dat.

    das war plattdeutsch...
     
  3. dside

    dside Registrierter Benutzer

    Im Board seit:
    20.08.03
    Zuletzt hier:
    2.02.10
    Beiträge:
    619
    Ort:
    karlsruhe
    Zustimmungen:
    2
    Kekse:
    463
    Erstellt: 26.07.04   #3
    klingt zwar komisch , is aba so. so und jetzt abschalten.
     
  4. alex

    alex Registrierter Benutzer

    Im Board seit:
    19.08.03
    Zuletzt hier:
    12.06.16
    Beiträge:
    153
    Ort:
    Krems / Österreich
    Zustimmungen:
    0
    Kekse:
    10
    Erstellt: 26.07.04   #4
    Ich glaubs net, ein Landsmann :D :great:

    Also ich spiel grad amal ein halbes Jahr und hab das auf Anhieb gspielt, is wirklich net schwer.
     
  5. Disposable Hero

    Disposable Hero Registrierter Benutzer

    Im Board seit:
    30.06.04
    Zuletzt hier:
    7.08.10
    Beiträge:
    859
    Ort:
    Chemnitz
    Zustimmungen:
    1
    Kekse:
    280
    Erstellt: 26.07.04   #5
    Sieht leicht aus, schätze dass ich dass in 10 - 20 Minuten drin hätte...

    Kannste dich a mal dranwagen!
     
  6. thommy

    thommy Registrierter Benutzer

    Im Board seit:
    25.03.04
    Zuletzt hier:
    24.11.11
    Beiträge:
    4.586
    Ort:
    its better to burn out than to fade away ?? ...
    Zustimmungen:
    10
    Kekse:
    1.456
    Erstellt: 26.07.04   #6
    ja wahnsinn, glei zwoa landsmänner ! :D

    Pfirte God, des san ja richtich vui !

    :D Dialekt rulez :D
     
  7. Smutje

    Smutje Registrierter Benutzer

    Im Board seit:
    14.07.04
    Zuletzt hier:
    29.11.04
    Beiträge:
    124
    Zustimmungen:
    0
    Kekse:
    10
    Erstellt: 27.07.04   #7
    Griaß eng!

    I hob jo gwusst, daß i net allan bin!
    Werd des Liadl daham amoi testn!

    Pfiat eich!
    Smutje
     
  8. D*M*K

    D*M*K Registrierter Benutzer

    Im Board seit:
    12.06.04
    Zuletzt hier:
    14.08.06
    Beiträge:
    136
    Zustimmungen:
    0
    Kekse:
    10
    Erstellt: 27.07.04   #8
    des is doch net schwer... sowos lernt man auf anhieb... und wennst es auswenidig lerna willst dann in ungefähr 10 - 20 minuten :rolleyes:
     
  9. antimaniax

    antimaniax Threadersteller Registrierter Benutzer

    Im Board seit:
    26.07.04
    Zuletzt hier:
    6.03.08
    Beiträge:
    54
    Ort:
    zeltweg
    Zustimmungen:
    0
    Kekse:
    31
    Erstellt: 27.07.04   #9
    also i hob mi gestan hingsetzt und geübt und geübt in 30 min hob is auswendig kennan nur wenn i ma des auf cd anhör und dann mitspün probier funktionierts. net so schnell kann man des jo net spün wies de tun :) und anhern tuat sies a a bissl anders oda is des wal de mit vazehrer spün uda mit sunst irgend ane sochn ?

    antimaniax :rock:
     
Die Seite wird geladen...

mapping