Life Of Agony - Weeds >>Solo?

von Thorn, 10.09.05.

  1. Thorn

    Thorn Registrierter Benutzer

    Im Board seit:
    03.04.04
    Zuletzt hier:
    12.06.16
    Beiträge:
    1.141
    Ort:
    Meppen
    Zustimmungen:
    1
    Kekse:
    104
    Erstellt: 10.09.05   #1
    Hat wer das Solo von oben genannten Lied? Oder kanns vllt. jemand raushören<<Ist auch nicht allzuschwer...

    Man kann sich das Lied hier legal downloaden ;)

    Wäre verdammt nett, wenns wer könnte!
     
  2. nokx

    nokx Registrierter Benutzer

    Im Board seit:
    27.04.05
    Zuletzt hier:
    10.09.05
    Beiträge:
    5
    Zustimmungen:
    0
    Kekse:
    10
    Erstellt: 10.09.05   #2
    nich wirklich... is aber machbar ;)
     
  3. Thorn

    Thorn Threadersteller Registrierter Benutzer

    Im Board seit:
    03.04.04
    Zuletzt hier:
    12.06.16
    Beiträge:
    1.141
    Ort:
    Meppen
    Zustimmungen:
    1
    Kekse:
    104
    Erstellt: 11.09.05   #3
    Ich hab eins gefunden:)

    Solo (Rhythm guitar plays center part)
    e|------------------------------|
    B|---7--------------------------|
    G|x----9-6-9-6---6--6-6---6-6--x|
    D|x------------9--------9------x|
    A|------------------------------|
    E|------------------------------|

    e|----------------------------------------------------|
    B|------------------------7-------7-------7ud---------|
    G|------------6-----9-6-6---9-6-6---9-6-6-----9p69p6s-|
    D|----6-9-6-9---9-6-----------------------------------|
    A|--9-------------------------------------------------|
    E|----------------------------------------------------|

    ! +12 ! +12 ! +12 ! +12 ! +12 ! +12 ! +12 ! +12 ! +12 ! +12 ! +12 ! +12 !
    e|--------------------------------------------------------------------
    B|--------------------------------------------------------------------7b
    G|6~6-6-4-6-6~6-6-6-6-4-6-6p-6p46p466~6666p4964964964964964964
    D|--------------------------------------------------------------------
    A|---------------------------------------------------------------------
    E|--------------------------------------------------------------------

    Soprry hab den letzten teil n bissel gequetscht damit es passt;)

    Was meint der mit "+12!"???

    Hm Strophe undChorus und so warn beid em tab aber alle anders...muss mal gucken, aber passt wohl ungefähr das Solo!

    EDIT: Ah seh gerade das das Solotab in Drop B ist, deswegen sind Strophen und Co. auch anders, dann stimmt es ja ungefähr. Gut dan würfel ich mir mal was zusammen.

    Falls es wen interessiert, das Tab ist von mxtabs dort das vorletzte.
     
  4. Thorn

    Thorn Threadersteller Registrierter Benutzer

    Im Board seit:
    03.04.04
    Zuletzt hier:
    12.06.16
    Beiträge:
    1.141
    Ort:
    Meppen
    Zustimmungen:
    1
    Kekse:
    104
    Erstellt: 11.09.05   #4
    So falls jemand dieses wunderschöne Lied auch spielen möchte, hab ich nun mal ein super Tab zusammengebastelt:

    In Drop D (Standard geht aber auch wenn man einen Chord abkürzt;))

    Mit Solo, richtiger Reihenfolge, Lyrics unten dran, alles perfekt :great:

    Für Kritik und Verbesserungsvorschläge bin ich auch gerne zu haben;)
     

    Anhänge:

Die Seite wird geladen...

mapping