Nada Surf - Blonde On Blonde

von hoochie coochie man, 05.02.04.

  1. hoochie coochie man

    hoochie coochie man Registrierter Benutzer

    Im Board seit:
    21.08.03
    Zuletzt hier:
    21.04.09
    Beiträge:
    164
    Zustimmungen:
    0
    Kekse:
    14
    Erstellt: 05.02.04   #1
    Hat irgendjemand Tabs oder weiß irgendjemand wie man die hineingeworfene Akkorfolge am Schluss spielt. Ich muss das hinkriegen, kapiers aber nicht. Im Web findet man nur die Chords, keine Tabs.
    Danke schonmal
     
  2. vReodd?r

    vReodd?r Registrierter Benutzer

    Im Board seit:
    27.01.04
    Zuletzt hier:
    28.08.06
    Beiträge:
    50
    Ort:
    H-Town
    Zustimmungen:
    0
    Kekse:
    10
    Erstellt: 10.02.04   #2
    Oh hier kennt wer Nada Surf...Hmm, sry aba ich bin auch auf der Suche :(
     
  3. HeyDenker

    HeyDenker Registrierter Benutzer

    Im Board seit:
    22.12.03
    Zuletzt hier:
    22.09.08
    Beiträge:
    52
    Zustimmungen:
    0
    Kekse:
    10
    Erstellt: 27.03.04   #3
    [code:1]
    BLONDE ON BLONDE
    Band: Nada Surf
    Album: Let Go
    Tabbed by: (il9691@email.com)
    Tuning: Standard (EADGBE)

    **Capo 3rd fret**

    I II
    -------------------------|--------------------------------------
    ---------10-----------10-|--------------10--------------10------
    -------------------------|--------------------------------------
    -----11-----------11-----|----------11--------------11----------
    --0----------0-0---------|--11--11----------11--11----------11--
    -------------------------|--0---0-----------0---0-----------0---

    Ia IIa
    ----------------------------|-----------------------------------
    ---------10-----------10----|--------------10--------------10---
    ----------------------------|-----------------------------------
    -----11-----------11--------|----------11--------------11-------
    --0----------0-0----------0-|--11--11----------11--11-----------
    ----------------------------|--0---0-----------0---0------------

    III IV
    -----------------------------|----------------------------------
    ---------10------------10----|------------7-----------7---------
    -----11------------11--------|---------6-----------6------------
    -----------------------------|----------------------------------
    --9----------9--9----------9-|---6--6--------6--6---------------
    -----------------------------|----------------------------------

    IIIa IVa
    ----------------------------|-----------------------------------
    ---------10------------10---|------------7-----------7----------
    -----11------------11-------|---------6-----------6-------------
    ----------------------------|-----------------------------------
    --9----------9--9-----------|---6--6--------6--6--------6-------
    ----------------------------|-----------------------------------

    Chorus:
    ----------------------------------------------------------------
    --7---------7---------------------------------------------------
    --7--11--9--7---------------------------------------------------
    --7--11--9--7---------------------------------------------------
    --5--9---7--5---------------------------------------------------
    ----------------------------------------------------------------

    VERSE 2:
    ----------------------------------------------------------------
    ----------------------7--6--------------------------------------
    --9---9---9---9---11--6--4--7-----------------------------------
    --11--11--11--11--11--7--6--7-----------------------------------
    --0---11--0---11--9---6--4--5-----------------------------------
    ------0-------0-------------------------------------------------

    This kicks in near the end on top of the chorus: V
    -----2--0-----------------------------------------
    --7--2--0-----------------------------------------
    --7--2--1-----------------------------------------
    --7--4--2-----------------------------------------
    --5--4--2--4-7-9-7-4-7-9--------------------------
    -----2--0--2-5-7-5-2-5-7--------------------------

    Pattern:

    INTRO: I II I II I II I II
    VERSE 1: Ia I IIa II Ia I IIa II III IIIa IV IVa
    CHORUS X2
    INTRO TO VERSE 2: I II I II
    VERSE 2
    CHORUS...V eventually joins in near the end

    Home

    **Please retain the credit if you wish to use this tab on your site. Thanks**
    [/code:1]
     
Die Seite wird geladen...