Neil Young - Two old Friends

von -=FREAK=-, 25.07.04.

  1. -=FREAK=-

    -=FREAK=- Registrierter Benutzer

    Im Board seit:
    03.11.03
    Zuletzt hier:
    19.12.05
    Beiträge:
    14
    Ort:
    Rottweil
    Zustimmungen:
    0
    Kekse:
    10
    Erstellt: 25.07.04   #1
    Hat jemand die tabs zu dem Lied oder weiß wo ich sie bekomme?!?
    Find sie echt ums Verrecken ned.... :(
    danke schonmal im Vorraus!!!
     
  2. Slowhand

    Slowhand Registrierter Benutzer

    Im Board seit:
    19.08.03
    Zuletzt hier:
    3.12.16
    Beiträge:
    78
    Zustimmungen:
    0
    Kekse:
    22
    Erstellt: 25.07.04   #2
    Nimm das:

    Chords/Tabulature for
    Two Old Friends
    Submitted by: Keith Hang The DJ (WeldedRust@aol.com)
    Notes about this song:

    This is an unreleased song debuted on the CSNY 2002 tour.
    This version is taken from the performance on the opening night at Detroit.
    The intro is repeated several times with slight variation.
    Tuning: Standard (EADGBE).

    Chords:
    A x02220
    Amaj7 x02120
    D xx0232
    F#m 244222
    E 022100
    Esus4 022200
    C x32010
    Fmaj7 133210
    G6 320000

    Intro:
    A Amaj7 D A
    e|-------------------------------------|
    B|----5---5-7p5------------------------|
    G|-/6-----------6-------2-4/6--------2-|
    D|------------------2h4-----------/4---|
    A|-------------------------------------|
    E|-------------------------------------|

    F#m D E
    e|-------------------------------------|
    B|-------------------------------------|
    G|-/6---4---2-----------2-4/6-4--------|
    D|------------------4p2----------------|
    A|-------------------------------------|
    E|-------------------------------------|

    A Amaj7 D A
    e|---------------------------------------|
    B|----5-----5h7p5------------------------|
    G|-/6-----6-------6-------2-4/6--------2-|
    D|--------------------2h4-----------/4---|
    A|---------------------------------------|
    E|---------------------------------------|

    F#m D E
    e|-------------------------------------|
    B|-------------------------------------|
    G|-/6---4---2-----------2-2---2--------|
    D|------------------4p2----------------|
    A|-------------------------------------|
    E|-------------------------------------|

    Verse:
    A Amaj7 D A
    Preacher went up to the Golden Gate and met God there,
    F#m D E
    With the glow of love in his flowing hair;
    A Amaj7 D A
    I'm dreamin' of a time when love and music is everywhere.
    F#m D A
    Can you see that time comin'?

    A Amaj7 D A
    No my son that time has gone there's things to do,
    F#m D E
    The world has changed since I first met you;
    A Amaj7 D A
    Back when The Band played Rock of Ages in their prime,
    F#m D A
    And the old juke joint was rockin'.

    Chorus:
    Esus4 E D A
    Oh Lord there's so much hate,
    F#m D E
    In a world where we're from another place;
    Esus4 E D A
    Show me how to live like you,
    C Fmaj7
    See no evil, hear no evil,
    C G6 D
    Feel no evil in my heart.
    A
    In my heart, in my aching heart,
    D
    In my heart, in my heart,
    A
    In my old black heart,
    D
    In my heart, in my heart,
    A
    In my beating heart.

    (repeat Intro)

    Verse:
    Sky had turned a lotta shades of gray,
    As they walked on,
    And a gentle rain fell down on them.
    They found faith in the way things are and,
    The way things change,
    And they said goodbye like two old friends.

    Chorus:
    Take me up to the mountains high,
    Or a building top where the spirits fly.
    Show me how to be like you.
    See no evil, hear no evil,
    Feel no evil in my heart.
    In my heart, in my aching heart,
    In my heart, in my heart,
    In my old black heart,
    In my heart, in my heart,
    In my beating heart.

    (repeat Intro)

    Chorus:
    Oh Lord there's so much hate,
    In a world where we're from another place.
    Show me how to live like you.
    See no evil, hear no evil,
    Feel no evil in my heart.
    In my heart, in my aching heart,
    In my heart, in my heart,
    In my old black heart,
    In my heart, in my heart,
    In my beating heart.

    Ending:
    (repeat Intro, then repeat last
    bar of the Intro and finish.)


    Stammt von http://hyperrust.org/Music/?Tab ,einer sehr guten Seite für Neil Young Tabs. :great:
     
  3. -=FREAK=-

    -=FREAK=- Threadersteller Registrierter Benutzer

    Im Board seit:
    03.11.03
    Zuletzt hier:
    19.12.05
    Beiträge:
    14
    Ort:
    Rottweil
    Zustimmungen:
    0
    Kekse:
    10
    Erstellt: 26.07.04   #3
    OH YEAH ! Super, Klasse, Danke!!! :great:
    ...mal noch ne Frage: Bin noch ned so der Held auf meiner Westerngitarre...hab grad erstmal anfang von "Stairway..." hinbekommen :rolleyes:
    Ist das schwer zum lernen (und lacht mich ned aus *g*)
    Ach ja, was bedeuten die / im intro? sind das slides?
     
Die Seite wird geladen...

mapping