Nirvana- Lithium ...

von GuitarRa, 19.04.06.

  1. GuitarRa

    GuitarRa Registrierter Benutzer

    Im Board seit:
    03.07.05
    Zuletzt hier:
    12.01.08
    Beiträge:
    617
    Ort:
    Nienburg
    Zustimmungen:
    0
    Kekse:
    32
    Erstellt: 19.04.06   #1
    Jo ... würde gerne das solo von In Bloom von nirvana mal spielen .. is das eurer Meinung nach schwer oder relativ einfach ... bin halt eigendlich noch anfänger und wollt das nur ma wissen was ihr davon haltet ! Und wenn es nich sooo mega schwer is dann würd ich mich auch über tabs vom solo freun :D:rolleyes:

    mFg
    fabian :great:

    edit: sry ich meinte das lied In Bloom von nirvana ! habs oben geändert aber überschrift funzt net :D
     
  2. Krise25

    Krise25 Registrierter Benutzer

    Im Board seit:
    12.04.06
    Zuletzt hier:
    12.05.06
    Beiträge:
    30
    Ort:
    Münster
    Zustimmungen:
    0
    Kekse:
    10
    Erstellt: 19.04.06   #2
    Habs noch auf der Festplatte gehabt, aber ewig nicht gespielt. Schwer ist es nicht, eigentlich ein ideales Anfängersolo. Ich glaube es wird mit mit Echo und vlt. sogar Wah gespielt, falls du sowas hast. Viel Spaß!

    e--------------------------------------------------------------------------
    b--------------------------------------------------------------------------
    g-------6-6h8-6-8-9-8---------6-8-9b10-8-6-8b8-6-8-8-6-9b11----------------
    d----------------------7-8-------------------------------------------------
    a--------------------------------------------------------------------------
    e--------------------------------------------------------------------------


    e--------------------------------------------------------------------------
    b-------6-8p6-6-8h9-8-9-11-9-11-12-13b15-14\-----8---8---------------------
    g--------------------------------------------6-6---6-----------------------
    d--------------------------------------------------------------------------
    a--------------------------------------------------------------------------
    e--------------------------------------------------------------------------
     
  3. GuitarRa

    GuitarRa Threadersteller Registrierter Benutzer

    Im Board seit:
    03.07.05
    Zuletzt hier:
    12.01.08
    Beiträge:
    617
    Ort:
    Nienburg
    Zustimmungen:
    0
    Kekse:
    32
    Erstellt: 19.04.06   #3
    ne hab so was leider noch net .. aber danke fürs tab :) aber was bedeutet das h und p ? hammering on und pull off ?? :D und das b und des \ ?? :rolleyes: :)
     
  4. Korgun

    Korgun Registrierter Benutzer

    Im Board seit:
    05.06.05
    Zuletzt hier:
    26.04.10
    Beiträge:
    368
    Zustimmungen:
    1
    Kekse:
    116
    Erstellt: 19.04.06   #4
    Jop, h und p für hammer on und pull off. Und die b's sind Bendings und die / sind slides.
     
  5. GuitarRa

    GuitarRa Threadersteller Registrierter Benutzer

    Im Board seit:
    03.07.05
    Zuletzt hier:
    12.01.08
    Beiträge:
    617
    Ort:
    Nienburg
    Zustimmungen:
    0
    Kekse:
    32
    Erstellt: 19.04.06   #5
    achso ... ok ! danke :)
     
  6. kurdt_cobain

    kurdt_cobain Registrierter Benutzer

    Im Board seit:
    21.04.05
    Zuletzt hier:
    17.10.16
    Beiträge:
    235
    Ort:
    Nürnberg
    Zustimmungen:
    0
    Kekse:
    85
    Erstellt: 20.04.06   #6
    hae was jetzt lithium oder in bloom


    edit: jaja erst lesen dann schreiben
     
  7. Cornholio

    Cornholio Registrierter Benutzer

    Im Board seit:
    06.12.04
    Zuletzt hier:
    2.10.16
    Beiträge:
    2.423
    Zustimmungen:
    1
    Kekse:
    3.182
    Erstellt: 20.04.06   #7
  8. GuitarRa

    GuitarRa Threadersteller Registrierter Benutzer

    Im Board seit:
    03.07.05
    Zuletzt hier:
    12.01.08
    Beiträge:
    617
    Ort:
    Nienburg
    Zustimmungen:
    0
    Kekse:
    32
    Erstellt: 20.04.06   #8
    thx für den link !! hehe jo lithium hat ich auch gar ned vor zu lernen ... hab die ja irgendwie verwechselt :rolleyes:
     
  9. GuitarRa

    GuitarRa Threadersteller Registrierter Benutzer

    Im Board seit:
    03.07.05
    Zuletzt hier:
    12.01.08
    Beiträge:
    617
    Ort:
    Nienburg
    Zustimmungen:
    0
    Kekse:
    32
    Erstellt: 20.04.06   #9
    mhh kann da aber irgednwie kein video zum solo von In Bloom finden :( aber trotzdem nice page :rolleyes::)
     
  10. Cornholio

    Cornholio Registrierter Benutzer

    Im Board seit:
    06.12.04
    Zuletzt hier:
    2.10.16
    Beiträge:
    2.423
    Zustimmungen:
    1
    Kekse:
    3.182
    Erstellt: 21.04.06   #10
    Das sagt der Guitar Pro Tab:
    Code:
    [SIZE="1"]E.  S E  E  S S E  Q       E.  S E  E  H           E.  S E  E  H         
    --------------------------|-----------------------|-----------------------|
    --------------------------|-----------------------|-----------------------|
    --------------------------|--3---3-3--------------|-----------------------|
    --3---3-3--6--L-6-6--6----|--3---3-3--5--L--------|--3---3-3--6--L--------|
    --3---3-3--6--L-6-6--6----|--1---1-1--5--L--------|--3---3-3--6--L--------|
    --1---1-1--4--L-4-4--4----|-----------3--L--------|--1---1-1--4--L--------|
    
      W                     Q.     S S Q      E.  S  
    ---------------------|--------------------------|
    ---------------------|--------------------------|
    --8br----------------|--L------0-6-6br----L---L-|
    ---------------------|--------------------------|
    ---------------------|--------------------------|
    ---------------------|--------------------------|
    
                                          W                            
      Q    S S S S  E  S S S S T S.     S E  S E.  S S   S S S S S E   
    ---------------------------------|--------------------------------|
    ---------------------------------|--------------------------------|
    --6----6-8-6-8b-L--8-----6-8-8br-|--L-8--6-8---6-8br-L-L-6-8-8----|
    ---------------------6-8---------|-----------------------------0--|
    ---------------------------------|--------------------------------|
    ---------------------------------|--------------------------------|
    
         NH                                                                  
         Q.        S  S E  S  S S S S S      S T T S  S  E   E   H           
    --------------------------------------|---------------------------------|
    -----------------------8----8-9-8-9br-|--L-L---9-11-11b--L--11br--------|
    --<>10br------10-10-L----10-----------|---------------------------------|
    --------------------------------------|------0--------------------------|
    --------------------------------------|---------------------------------|
    --------------------------------------|---------------------------------|
    
      H        Q    S E.     E  S S S E  S S S S S S S S S  
    ----------------------|--------------------------------|
    --L---------------8---|--8----8-L-7--6-----------------|
    -----------6----6-----|-----6----------3-3-3-3-6-6-6-6-|
    ----------------------|----------------3-3-3-3-6-6-6-6-|
    ----------------------|----------------1-1-1-1-4-4-4-4-|
    ----------------------|--------------------------------|[/SIZE]
    Mann muss sagen dass das ein Anarchiesolo ist, mit dem ganzen Feedback.
    Wenn du das unbedingt sehen musst, könntest du dir Live-Bootlegs besorgen. :rolleyes:
     
  11. GuitarRa

    GuitarRa Threadersteller Registrierter Benutzer

    Im Board seit:
    03.07.05
    Zuletzt hier:
    12.01.08
    Beiträge:
    617
    Ort:
    Nienburg
    Zustimmungen:
    0
    Kekse:
    32
    Erstellt: 21.04.06   #11
    hehe jo ne unbedingt muss ich es ja ned sehn .. aber war halt nur mal sone anmerkung von mir das es da auf der seite ned ist :D:rolleyes:
     
  12. Cornholio

    Cornholio Registrierter Benutzer

    Im Board seit:
    06.12.04
    Zuletzt hier:
    2.10.16
    Beiträge:
    2.423
    Zustimmungen:
    1
    Kekse:
    3.182
    Erstellt: 21.04.06   #12
    Wie macht man Feedback mit einem POD :D?
     
  13. GuitarRa

    GuitarRa Threadersteller Registrierter Benutzer

    Im Board seit:
    03.07.05
    Zuletzt hier:
    12.01.08
    Beiträge:
    617
    Ort:
    Nienburg
    Zustimmungen:
    0
    Kekse:
    32
    Erstellt: 21.04.06   #13
    hä ?? :D was meinste .. lol
     
Die Seite wird geladen...

mapping