Nirvana-Smells Like Teen Spirit

von Schnax, 14.12.06.

  1. Schnax

    Schnax Registrierter Benutzer

    Im Board seit:
    19.05.06
    Zuletzt hier:
    26.11.07
    Beiträge:
    33
    Ort:
    Niederbayern
    Zustimmungen:
    0
    Kekse:
    10
    Erstellt: 14.12.06   #1
    Hi Leute
    Vll. haltet ihr mich jetz für blöd,:screwy:
    aber könnt ihr mir sagen, wie die schlagfigur bei diesem Nirvana song ist?:confused:
    Voralem beim Intro und beim Verse hab ich da Probleme
    Bitte um schnelle Hilfe:rolleyes:

    mfG
     
  2. albertus

    albertus Registrierter Benutzer

    Im Board seit:
    23.03.06
    Zuletzt hier:
    11.08.10
    Beiträge:
    44
    Zustimmungen:
    0
    Kekse:
    10
  3. BlueChaoz

    BlueChaoz Registrierter Benutzer

    Im Board seit:
    14.03.06
    Zuletzt hier:
    22.03.12
    Beiträge:
    840
    Zustimmungen:
    1
    Kekse:
    608
    Erstellt: 14.12.06   #3
    Hab auch nochmal was angehängt...
     

    Anhänge:

    • slts.JPG
      Dateigröße:
      33,3 KB
      Aufrufe:
      141
  4. Schnax

    Schnax Threadersteller Registrierter Benutzer

    Im Board seit:
    19.05.06
    Zuletzt hier:
    26.11.07
    Beiträge:
    33
    Ort:
    Niederbayern
    Zustimmungen:
    0
    Kekse:
    10
    Erstellt: 14.12.06   #4
    also die tabs von der seite stimmen oder? die guitar pro version da hab ich drauf, nur naja ned grad gut..ich probiers jetz mal mit der seite, gibds da auch die gleiche seite nur mit videos?
     
  5. albertus

    albertus Registrierter Benutzer

    Im Board seit:
    23.03.06
    Zuletzt hier:
    11.08.10
    Beiträge:
    44
    Zustimmungen:
    0
    Kekse:
    10
    Erstellt: 14.12.06   #5
    nein das gibt es nicht
     
  6. BlueChaoz

    BlueChaoz Registrierter Benutzer

    Im Board seit:
    14.03.06
    Zuletzt hier:
    22.03.12
    Beiträge:
    840
    Zustimmungen:
    1
    Kekse:
    608
    Erstellt: 14.12.06   #6
    Also ich hab hier noch ne Text Version vom Tab, die is ausm Songbook wenn ich mich net täusche..:
    Code:
    INTRO
    e----------------------------------------------------------------------------
    b-----------------------------------x-x-x-x----------------------x-x-x-x-----
    g----------x-0-x--3--3--00----------x-x-x-x--6--6-6--0-0---------x-x-x-x-----
    d--3--3-3--x-0-x--3--3--00---6--6-6-x-x-x-x--6--6-6--0-0--3--3-3 x-x-x-x-----
    a--3--3-3--x-0-x--1--1--00---6--6-6-x-x-x-x--4--4-4--0-0--3--3-3 x-x-x-x-----
    e--1--1-1--------------------4--4-4-x-x-x-x---------------1--1-1 x-x-x-x-----
    
    e----------------------------------------------------------------------------
    b----------------------x-x-x-x-----------------------------------------------
    g--3--3-3--0-0---------x-x-x-x-----------------------------------------------
    d--3--3-3--0-0--6--6-6-x-x-x-x-----------------------------------------------
    a--1--1-1--0-0--6--6-6-x-x-x-x-----------------------------------------------
    e---------------4--4-4-x-x-x-x-----------------------------------------------
    
     
  7. kurticobain

    kurticobain Registrierter Benutzer

    Im Board seit:
    11.05.06
    Zuletzt hier:
    11.08.09
    Beiträge:
    808
    Zustimmungen:
    2
    Kekse:
    310
    Erstellt: 14.12.06   #7
    meiner meinung nach ist der Freelicks Tab ziemlich falsch da er normalerweise mit deadnotes gespielt wird.

    @Bluechaos, die tabs stimmen zwar aber das sind nicht die ausm songbook, ich glaub sogar die im songbook stimmen nicht mal ganz;)
     
  8. albertus

    albertus Registrierter Benutzer

    Im Board seit:
    23.03.06
    Zuletzt hier:
    11.08.10
    Beiträge:
    44
    Zustimmungen:
    0
    Kekse:
    10
    Erstellt: 15.12.06   #8
    der einzige der wirklich sagen kann wie man es spielt weilt ja nicht mehr unter uns
     
  9. BlueChaoz

    BlueChaoz Registrierter Benutzer

    Im Board seit:
    14.03.06
    Zuletzt hier:
    22.03.12
    Beiträge:
    840
    Zustimmungen:
    1
    Kekse:
    608
    Erstellt: 15.12.06   #9

    Und selbst der hat verschiedene Varianten drauf gehabt ^^ Ich mein.. Der konnte sich streckenweise nicht mal mehr an seine eigenen Lieder erinnern :screwy: Da kommen schon nen paar Versionen zusammen :D
     
Die Seite wird geladen...

mapping