Nothing else matters - Interlude

von Streifenkarl, 12.12.06.

  1. Streifenkarl

    Streifenkarl Registrierter Benutzer

    Im Board seit:
    12.11.06
    Zuletzt hier:
    25.02.07
    Beiträge:
    98
    Zustimmungen:
    0
    Kekse:
    38
    Erstellt: 12.12.06   #1
    Ich komm da ganz am Ende des Interludes nicht weiter, und zwar mit dieser kleinen Variation am Ende mit den zwei Bendings, weiß einer von Euch was er da genau spielt?

    In den Tabs konnte ich dazu nix finden. Hoffe mir kann dabei jemand helfen.
     
  2. 35Percent

    35Percent Registrierter Benutzer

    Im Board seit:
    03.11.06
    Zuletzt hier:
    21.01.10
    Beiträge:
    104
    Zustimmungen:
    0
    Kekse:
    10
    Erstellt: 12.12.06   #2
    ---------------------------------------------------------------------------------------------
    ---------------------------------------------------------------------------------------------
    ------------------12-------12---14-----------12--14-----14^1/2-------------------------
    ---------------------------------------------------------------------------------------------
    ----------------------------------------------------------------------------------------------
    ----------------------------------------------------------------------------------------------



    ----------------------------------------------------------------------------------------------
    -------------15---------15----15^1-------------------------------------8------------------
    -------------14---------14----14---------12----------------12----------9-----------
    ----------------------------------------------14------12 h14-----------------
    -----------------------------------------------------------------------------------------------
    ----------------------------------------------------------------------------------------------

    also wenn du des bei 3:40 rum meinst. weger rythmus musst dich halt vom lied leiten lassen aber so ungefähr sin die noten denk ich. vielleicht isn hammer on mehr aber des kriegst ja dann raus:D
     
Die Seite wird geladen...

mapping