One - Metallica, Tab für Ukulele, Viel Spaß damit

von padawan, 26.05.06.

  1. padawan

    padawan Registrierter Benutzer

    Im Board seit:
    29.03.06
    Zuletzt hier:
    2.02.14
    Beiträge:
    108
    Zustimmungen:
    0
    Kekse:
    24
    Erstellt: 26.05.06   #1
    Also, hier mein 1. Tab für die Ukulele, ich muss dazu sagen dass ich erst seit gestern Abend eine habe, also für den Fall das was falsch ist, Entschuldigung, aber ich finde das Ergebnis eigentlich gut.

    Ich werde die nächsten Tage sicher immer wieder weitermachen und meinen Verlauf hier posten.

    Bis jetzt gibt es das Intro bis 0.52:

    Hier seht ihr wie das dann klingt:

    Verzerrt
    Clean/Direkt

    Achso, Stimmung ist GCEA

    Code:
    3x (Das Intro)
    
    |-----9-----5--|-----9-----5--|-----9-----5--|-----9-----5----10-|
    |--7-----7-----|--------------|--7-----7-----|--7----7-----------|
    |--------------|--7-----7-----|--------------|-------------------|
    |--------------|--------------|--------------|-------------------|
    
    |-----9-----5--|-----9-----5--|-----9-----5--|-------------------| **  Alt.:  ** |-----2-----2----|
    |--7-----7-----|--------------|--------------|-----7-----7-------|               |--0-----2-------|
    |--------------|--9-----9-----|--7-----7-----|--4-----6----------|               |----------------|
    |--------------|--------------|--------------|-------------------|               |----------------|
    
    Beim 2. Mal setzt das Solo ein:
    
    |-----------2h4p2-----|-----5h4-2---5h4-0-----5----|-5p4-2--------------| 
    |---0h2-5-------------|----------------------------|--------------------| 
    |---------------------|----------------------------|--------------------| 
    |---------------------|----------------------------|--------------------| 
     
    |---9p7s5-7p5s4-4h5p4-|-0h2-2-------0h2---4h5-|-4---0h2---4-4h5p4p2p0h2-|
    |---------------------|-----------------------|-------------------------|
    |---------------------|-----------------------|-------------------------| 
    |---------------------|-----------------------|-------------------------|
    
    So, hier ist vorerst mal Schluss, ich poste das jetzt mal dass ihr schon mal was zum Spielen habt, den Rest mach ich auch noch!
    Also macht mir Mut dass ich weitermache! :)

    lg Mario
     
  2. Schlafie

    Schlafie Registrierter Benutzer

    Im Board seit:
    27.02.06
    Zuletzt hier:
    11.08.14
    Beiträge:
    207
    Ort:
    Stuttgart
    Zustimmungen:
    0
    Kekse:
    32
    Erstellt: 26.05.06   #2
    *ukuleleausgrab*

    YEAH wie geil, weitermachn :) :great:
     
  3. Simson

    Simson Registrierter Benutzer

    Im Board seit:
    14.11.04
    Zuletzt hier:
    18.09.16
    Beiträge:
    439
    Ort:
    Ecke Strasbourg (F)
    Zustimmungen:
    9
    Kekse:
    1.846
    Erstellt: 27.05.06   #3
    gute idee!
     
  4. padawan

    padawan Threadersteller Registrierter Benutzer

    Im Board seit:
    29.03.06
    Zuletzt hier:
    2.02.14
    Beiträge:
    108
    Zustimmungen:
    0
    Kekse:
    24
    Erstellt: 27.05.06   #4
    Verzerrt
    Clean/Direkt

    So, ich habe weitergetabbed und neue Aufnahmen gemacht die um Längen besser sind und auch länger :)

    Code:
    +++++++++++++++++++++++++++++++++++++++++++++++
    ++                                           ++
    ++           made by mario hamann            ++
    ++            fischfrosch@gmx.de             ++
    ++  version for guitar by ultime-guitar.com  ++
    ++                                           ++
    +++++++++++++++++++++++++++++++++++++++++++++++
    
    
    * Das Intro *
    
    **  3x Der 1. Teil (Rhytmusgitarre)  **
    
    |----9---5-------|----9---5-------|----9---5-------|----9---5------10-|
    |--7---7---------|----------------|--7---7---------|------------------|
    |----------------|--7---7---------|----------------|--7---7-----------|
    |----------------|----------------|----------------|------------------|
    
    |----9---5-------|----9---5-------|----9---5-------|------------------|
    |--7---7---------|----------------|----------------|----7---7---------|
    |----------------|--9---9---------|--7---7---------|--4---6-----------|
    |----------------|----------------|----------------|------------------|
    
    **  Beim 2. Mal setzt das Solo ein, im Hintergrund läuft der 1. Teil weiter…  **
    
    -0:37-
    
    |-----------2h4p2-----------5h4-2---5h4-0-----5------5p4-2------------| 
    |---0h2-5-------------------------------------------------------------| 
    |---------------------------------------------------------------------| 
    |---------------------------------------------------------------------| 
    
    -0:44-
    
    |---9p7---7p5--5p4-5--0h2----------0h2-4h5-4------0h2---4-4h5p4p2p0h2-|
    |---------------------------------------------------------------------|
    |---------------------------------------------------------------------|
    |---------------------------------------------------------------------|
    
    -0:56-
    
    |----9--(12b)15---12-10-9-10-----5p4-5--7p5-7--9p7-9--10-10-9-10------|
    |----------------------------10---------------------------------------|
    |---------------------------------------------------------------------|
    |---------------------------------------------------------------------|
    
    -1:04-
    
    [_Z_Z_R_M_K____Z_Z_R_M_K____Z_Z_Z_M_R_K_R_M_Z_M_M_M_R_M_Z_____________]
    
    |-----2-3-5--------2-3-7--------2h4-5-7-5-4-2-4-4-4h5p4-2-------------|
    |---2------------2------------2---------------------------------------|
    |-2------------2------------2-----------------------------------------|
    |---------------------------------------------------------------------|
    
    ** Währenddessen spielt die Rhtytmusgitarre Folgendes (Unterschied zu Teil 1 ist das Ende) **
    
    |----9---5------|----9---5------|----9---5------|---------------------|
    |--7---7--------|---------------|---------------|----7---7---7-7h9p7--|
    |---------------|--9---9--------|--7---7--------|--4---6---4----------|
    |---------------|---------------|---------------|---------------------|
    
    **  Ende des Solos, es geht weiter mit dem 2. Teil der Rhytmusgitarre  **
    
    ** 1x 2. Teil Rhytmusgitarre  **
    
    -1:14-
    
    |----9---5-5h9-5-|----9---5-9-9p5-|----9---5-5h9-5-|----9---5-5h9-5---|
    |--7---7---------|----------------|--7---7---------|------------------|
    |----------------|--7---7---------|----------------|--7---7-----------|
    |----------------|----------------|----------------|------------------|
    
    |----9---5-5h9-5-|----9---5-5h9-10-|----9---5-5h9-5-|
    |--7---7---------|-----------------|----------------|
    |----------------|--9---9----------|--7---7---------|
    |----------------|-----------------|----------------|
    
    |---2h4p2-----4-|---5-5-----7------|
    |-0-------0-2---|-3-----3-5--------|
    |---------------|------------------|
    |---------------|------------------|
    
    -1:30-
    
    |---------------------------------------------------------------------|
    |---------------------------------------------------------------------|
    |---------------------------------------------------------------------|
    |---------------------------------------------------------------------|
    
    Wow, jetzt bin ich schon so weit :D
    lg Mario
     
  5. padawan

    padawan Threadersteller Registrierter Benutzer

    Im Board seit:
    29.03.06
    Zuletzt hier:
    2.02.14
    Beiträge:
    108
    Zustimmungen:
    0
    Kekse:
    24
    Erstellt: 05.06.06   #5
    Wow, heute bin ich jeweils bis zum Refrain gekommen, was für ne Arbeit, habe micha auch extra ein paar mal verspielt :D

    Naja, da es aber ab jetzt irgendwie verzerrt komisch klingt mach ich jetzt vorerst mal nur clean…

    Zu dem Tab:

    Ich habe als Extra auch noch den Gesangspart hinzugefügt, wie das klingt hört ihr ja in der MP3-Datei.

    Mp3-Datei zum anhören! :)

    lg Mario.

    Code:
    
                 +++++++++++++++++++++++++++++++++++++++++++++++
                 ++                                           ++
                 ++           made by mario hamann            ++
                 ++            fischfrosch@gmx.de             ++
                 ++  version for guitar by ultime-guitar.com  ++
                 ++                                           ++
                 +++++++++++++++++++++++++++++++++++++++++++++++
    
    
    * Das Intro *
    
    **  3x Der 1. Teil (Rhytmusgitarre)  **
    
    |----9---5-------|----9---5-------|----9---5-------|----9---5------10-|
    |--7---7---------|----------------|--7---7---------|------------------|
    |----------------|--7---7---------|----------------|--7---7-----------|
    |----------------|----------------|----------------|------------------|
    
    |----9---5-------|----9---5-------|----9---5-------|------------------|
    |--7---7---------|----------------|----------------|----7---7---------|
    |----------------|--9---9---------|--7---7---------|--4---6-----------|
    |----------------|----------------|----------------|------------------|
    
    **  Beim 2. Mal setzt das Solo ein, im Hintergrund läuft der 1. Teil weiter…  **
    
    -0:37-
    
    |-----------2h4p2-----------5h4-2---5h4-0-----5------5p4-2------------| 
    |---0h2-5-------------------------------------------------------------| 
    |---------------------------------------------------------------------| 
    |---------------------------------------------------------------------| 
    
    -0:44-
    
    |---9p7---7p5--5p4-5--0h2----------0h2-4h5-4------0h2---4-4h5p4p2p0h2-|
    |---------------------------------------------------------------------|
    |---------------------------------------------------------------------|
    |---------------------------------------------------------------------|
    
    -0:56-
    
    |----9--(12b)15---12-10-9-10-----5p4-5--7p5-7--9p7-9--10-10-9-10------|
    |----------------------------10---------------------------------------|
    |---------------------------------------------------------------------|
    |---------------------------------------------------------------------|
    
    -1:04-
    
    [_Z_Z_R_M_K____Z_Z_R_M_K____Z_Z_Z_M_R_K_R_M_Z_M_M_M_R_M_Z_____________]
    
    |-----2-3-5--------2-3-7--------2h4-5-7-5-4-2-4-4-4h5p4-2-------------|
    |---2------------2------------2---------------------------------------|
    |-2------------2------------2-----------------------------------------|
    |---------------------------------------------------------------------|
    
    ** Währenddessen spielt die Rhtytmusgitarre Folgendes (Unterschied zu Teil 1 ist das Ende) **
    
    |----9---5------|----9---5------|----9---5------|---------------------|
    |--7---7--------|---------------|---------------|----7---7---7-7h9p7--|
    |---------------|--9---9--------|--7---7--------|--4---6---4----------|
    |---------------|---------------|---------------|---------------------|
    
    **  Ende des Solos, es geht weiter mit dem 2. Teil der Rhytmusgitarre  **
    
    ** 1x 2. Teil Rhytmusgitarre  **
    
    -1:14-
    
    |----9---5-5h9-5-|----9---5-9-9p5-|----9---5-5h9-5-|----9---5-5h9-5---|
    |--7---7---------|----------------|--7---7---------|------------------|
    |----------------|--7---7---------|----------------|--7---7-----------|
    |----------------|----------------|----------------|------------------|
    
    |----9---5-5h9-5-|----9---5-5h9-10-|----9---5-5h9-5-|
    |--7---7---------|-----------------|----------------|
    |----------------|--9---9----------|--7---7---------|
    |----------------|-----------------|----------------|
    
    |---2h4p2-----4-|---5-5-----7------|
    |-0-------0-2---|-3-----3-5--------|
    |---------------|------------------|
    |---------------|------------------|
    
    -1:30-
    
    ** 2x 3. Teil der Rhytmusgitarre  **
                                                                         [  Beim 2. Mal  ]
    
    |---------5----|----2h5-2---2h5-2--|---3---8-3----|----2---7-2-----| |----2---2------|
    |*----5-3------|----------3--------|-----3-----3--|--0---3-----3--*| |--0---3--------|
    |*--2----------|-------------------|-5------------|---------------*| |------------0--|
    |--------------|--0----------------|--------------|----------------| |---------------|
    
    **  Gleichzeitig die Sologitarre  **
                                       
    |---------5-5--|--7-5-3-2----------|-------2-5-2--|-2-5-2----------| |---------------|
    |-----5-3------|--8-7-5-3----------|-5-5---3-5-3--|-3-5-3---------*| |------5-3------|
    |--2-----------|-------------------|-5-5----------|---------------*| |------5-4------|
    |--------------|-------------------|--------------|----------------| |---------------|
    
    **  2x 4. Teil der Rhythmusgitarre **
    
    |-----9---5-5h9-5-|----9---5-9-9p5-|----9---5-5h9-5-|----9---5-5h9-5--|
    |*--7---7---------|----------------|--7---7---------|-----------------|
    |*----------------|--7---7---------|----------------|--7---7----------|
    |-----------------|----------------|----------------|-----------------|
    
    |----9---5-5h9-5--|----9---5-5h9-10--|----9---5-5h9-5--|----2---2-----|
    |--7---7----------|------------------|-----------------|--0---2------*|
    |-----------------|--9---9-----------|--7---7----------|-------------*|
    |-----------------|------------------|-----------------|--------------|
    
    **  Gesang während dem 4. Teil  **
    
    |----------------------------|--------------------------------------|
    |-2--2-----2-2--2--3-2--2----|--2-----2---2----2--2----3--2---------|
    |----------------------------|---------------------------------2----|
    |----------------------------|--------------------------------------|
    | I Can't Remember Anything  | Can't Tell If this Is True or Dream  |
    
    |-----------------------------------|---2---2--2--2--2---------------|
    |--2----2---2--2-----------2----2---|------------------5------3h2--2-|
    |------------------2--4-------------|--------------------------------|
    |-----------------------------------|--------------------------------|
    | Deep down Inside I Feel to Scream | This Terrible Silence Stops Me |
    
    |-------------------------------------|------------------------------|
    |--2----2----2--2--2-----3-----2----2-|--2---2-2---2--2--3--2--------|
    |-------------------------------------|--------------------------2---|
    |-------------------------------------|------------------------------|
    | Now That the War Is Through with Me | I'm Waking up I Can Not See  |
    
    |-----------------------------------|--2--2---2---2-2----------------|
    |---2----2---2---2------------2---2-|-------------------5---3h2--2---|
    |--------------------2----4---------|--------------------------------|
    |-----------------------------------|--------------------------------|
    | That There Is Not Much Left of Me | Nothing Is Re-al but Pain Now  |
    
    
    **  1x 5. Teil der Rhythmusgitarre, der Refrain  **
    
    |--5-x-7--9-7--|--4-9-7---7-7--------|
    |--3-x-5--7-5--|--2-7-5---5-5-1-2-3--|
    |--2-x-4--6-4--|--1-6-4---4-4-0-1-2--|
    |--------------|---------------------|
    
    **  Gesang während dem 5. Teil  **
    
    |------------------------------------|-2----4-----4----5---5--|
    |--3----5---7----5--3--2----7---5----|------------------------|
    |------------------------------------|------------------------|
    |------------------------------------|------------------------|
    | Hold My Breath as I Wish for Death | Oh Please God, wake Me |
    
    
    
    So, ab hier wird alles von Teil 3.-5. komplett wiederholt, der 3. Teil danach nochmals 3x
    
    Der Aufbau bis jetzt wäre also folgendermaßen (Für die Rhythmusgitarre):
    
    3x Teil 1 (Intro, beim 3. mal das veränderte Ende am den Solos beachten)
    1x Teil 2 (Intro mit Einleitung zum Zwischenspiel)
    1x Teil 3 (Zwischenspiel)
    2x Teil 4 (Strophe)
    1x Teil 5 (Refrain)
    1x Teil 3 (Zwischenspiel)
    2x Teil 4 (Strophe)
    1x Teil 5 (Refrain)
    4x Teil 3 (Zwischenspiel)
    
    Alles danach kommt auch noch :)
    
    lg Mario
     
Die Seite wird geladen...

mapping