Paranoid Solo auf dem Bass

von Malaclypse, 17.02.05.

  1. Malaclypse

    Malaclypse Registrierter Benutzer

    Im Board seit:
    20.01.05
    Zuletzt hier:
    17.03.08
    Beiträge:
    10
    Ort:
    Quito, Ecuador
    Zustimmungen:
    0
    Kekse:
    10
    Erstellt: 17.02.05   #1
    Hallo,
    Weil mein Gitarrist das noch nicht ganz hinkriegt, hab ich mir überlegt, dass ich einfach das Solo in Paranoid spiel. Also hab ich mir die Gitarren-Tabs von MxTabs rungergeladen und mal versucht es für den Bass zu transponieren.
    Hab alles nochmal eine Oktave tiefer aufgeschrieben.
    Was haltet ihr davon?


    Code:
    G |------------------------------------------------------------		    
    D |----------------------------------------------------5-------		    
    A |^7--5--5-h7--7--5--7-p5--------------------5-h7--7-----7--7-		    
    E |-------------------------7-\5--3-h5--3-h5-------------------		    
    
    
    
    G |																	 
    D |																	 
    A |																	 
    E |																	 
    
    
    
    G |------------------------------------------------------------------------
    D |-------------------------------5--7-^7--5-^7-p5--7--5-------------------
    A |----------------5-h7--7--5-/7--------------------------7--7-----5-h7--7-
    E |----3-h5--5-/7----------------------------------------------------------
    
    
    
    G |---------															 
    D |---------															 
    A |-7-\12---															 
    E |---------															 
    
    
    
    G |----9----------------^12^12^12p9--12p9-----12p9-----------------9-------
    D |-9-----12^12^12^12-9--------------------12------^12-12p9-----9-----12p9-
    A |---------------------------------------------------------^12------------
    E |------------------------------------------------------------------------
    
    
    
    G |------------------------------------------							 
    D |------------------------------------------							 
    A |-12-12p10----10^12p10^12-10h12p10----10---							 
    E |----------12----------------------12----12							 
    
    
    
    G |---------------------------------------------------------------------
    D |-------------------------------------------------5-------------------
    A |-7-p5-----5-----------------------------5--5-h7-----7--5--7--5--7----
    E |-------7-----5--3--5-p3--0--3-h5-/7----------------------------------
    Chao, Felix
     
  2. Sam Urai

    Sam Urai Registrierter Benutzer

    Im Board seit:
    26.08.03
    Zuletzt hier:
    24.07.15
    Beiträge:
    235
    Zustimmungen:
    2
    Kekse:
    37
    Erstellt: 17.02.05   #2
    Hi, ich bin Gitarrist, deswegen hab ich nicht so die Ahnung, aber direkt am Anfang kommt doch en Release-bend über ne kleine Terz, kann soviel überhaupt aufm Bass benden?
     
  3. stagediver

    stagediver Registrierter Benutzer

    Im Board seit:
    01.10.03
    Zuletzt hier:
    14.08.11
    Beiträge:
    1.206
    Ort:
    Romrod
    Zustimmungen:
    1
    Kekse:
    143
    Erstellt: 17.02.05   #3
    Ähhm...Vielleicht ne doofe Frage, aber von wem ist Paranoid? Ich würde mir das nämlich mal ganz gerne anhören ;)
     
  4. gdcBraindead

    gdcBraindead Registrierter Benutzer

    Im Board seit:
    31.10.04
    Zuletzt hier:
    28.01.14
    Beiträge:
    113
    Ort:
    Ὑπερβορέα
    Zustimmungen:
    0
    Kekse:
    299
    Erstellt: 17.02.05   #4
    Black Sabbath
     
  5. Malaclypse

    Malaclypse Threadersteller Registrierter Benutzer

    Im Board seit:
    20.01.05
    Zuletzt hier:
    17.03.08
    Beiträge:
    10
    Ort:
    Quito, Ecuador
    Zustimmungen:
    0
    Kekse:
    10
    Erstellt: 17.02.05   #5
    Wie genau meinst du das? Also den ersten Ton eine kleine Terz benden und dann während dem Ton loslassen?
     
  6. herbieschnerbie

    herbieschnerbie Registrierter Benutzer

    Im Board seit:
    23.10.04
    Zuletzt hier:
    11.01.15
    Beiträge:
    2.545
    Ort:
    Wo der Pfeffer wächst
    Zustimmungen:
    7
    Kekse:
    4.069
    Erstellt: 17.02.05   #6
    Also mit genug Kraft mit Sicherheit...
     
  7. Malaclypse

    Malaclypse Threadersteller Registrierter Benutzer

    Im Board seit:
    20.01.05
    Zuletzt hier:
    17.03.08
    Beiträge:
    10
    Ort:
    Quito, Ecuador
    Zustimmungen:
    0
    Kekse:
    10
    Erstellt: 18.02.05   #7
    Geslappt hörts sich auch ganz lustig an... Bin mal gespannt, was meine Mitmusiker zu sagen :D
     
  8. Earth616

    Earth616 Registrierter Benutzer

    Im Board seit:
    03.06.04
    Beiträge:
    955
    Zustimmungen:
    74
    Kekse:
    582
    Erstellt: 18.02.05   #8
    ein befreundeter bassist hat das solo auch aufm bass gespielt, mit wahwah, ich weiß jetzt nicht was er genau gespielt hat aber es klang sehr gut ;)
     
  9. Exciter

    Exciter Registrierter Benutzer

    Im Board seit:
    22.08.03
    Zuletzt hier:
    18.07.10
    Beiträge:
    1.318
    Zustimmungen:
    2
    Kekse:
    1.466
    Erstellt: 18.02.05   #9
    Moment mal... Black Sabbath, Solo auf dem Bass... dann noch mit Wah-Wah... biste sicher, dass das Paranoid war? Hört sich nämlich schwer nach NIB an. Göttliches Bassintro :great:
     
  10. Earth616

    Earth616 Registrierter Benutzer

    Im Board seit:
    03.06.04
    Beiträge:
    955
    Zustimmungen:
    74
    Kekse:
    582
    Erstellt: 18.02.05   #10
    nein nein kein intro und es war bestimmt paranoid.
     
Die Seite wird geladen...

mapping