parts im one-solo, wie spiel ich das?

von A.P., 25.01.05.

  1. A.P.

    A.P. Registrierter Benutzer

    Im Board seit:
    23.11.04
    Zuletzt hier:
    22.03.09
    Beiträge:
    969
    Ort:
    Ösiland
    Zustimmungen:
    2
    Kekse:
    205
    Erstellt: 25.01.05   #1
    is jetzt nich überlebenswichtig, aber ich spiele zum aufwärmen gern das one anfangssolo von kirk und einen teil der strophe, doch bei den folgenden passagen weiß ich nich wirklich wie ich das spielen soll:

    die strophe:
    ich spiel die hervorgehobenen mit wechselschlag, oder??, stimmt der tab??
    ab 01:14
    |-----------------------|-----------------------|-----------------------|
    |-----------------------|-----------------------|-----------------------|
    |-----------------------|-----------------------|-----------------------|
    |-----4-----0--0--4-----|-----4-----0--4--4--0--|-----4-----0--0--4--0--|
    |--2-----2-----------0--|-----------------------|--2-----2--------------|
    |-----------------------|--3-----3--------------|-----------------------|...


    solo teil 2:
    es gibt 1000 verschiedene spielweisen zu diesem teil, doch irgendwie hört sich keine richtig an (oder ich kanns einfach nich:D ), hat wer die "richtige version"
    01:30-01:42
    |-----------------------|-----------------------|------------------------|
    |-----------------------|-----------------------|-----0h3p0----0h3p0-----|
    |-----------------------|*--------0--7-----0----|------------4--------0--|
    |---------0-------------|*-----7--------7-------|--5---------------------|
    |-----5------------7----|---5-------------------|------------------------|
    |--3---------3--5-------|-----------------------|------------------------|

    (F) [1. (Em) ] [2.(Em) N.C end Riff A
    |--------1--------|--------------0------|------------------|
    |-----------1-----|-----------0-----0---|-----0------------|
    |-----0--------0--|-----4--0-----------*|--------0--4------|
    |--3--------------|--2-----------------*|--2---------------|
    |-----------------|---------------------|-------------/3---|
    |-----------------|---------------------|------------------|


    danke im voraus

     
  2. Codeman041083

    Codeman041083 Registrierter Benutzer

    Im Board seit:
    27.04.04
    Zuletzt hier:
    23.01.09
    Beiträge:
    314
    Zustimmungen:
    1
    Kekse:
    10
    Erstellt: 26.01.05   #2
    schreib das mal ins GITARREN-Forum und du wirst sicher gleich mal eine antwort bekommen!

    aber um dir weiterzu helfen:

    dir geht es um die roten Tabs oder?
    also:

    0->16tel 0->16tel 4->8tel

    0->8tel 4->16tel 4->16tel 0->8tel

    0->16tel 0->16tel 4->8tel 0->8tel


    CM
     
  3. A.P.

    A.P. Threadersteller Registrierter Benutzer

    Im Board seit:
    23.11.04
    Zuletzt hier:
    22.03.09
    Beiträge:
    969
    Ort:
    Ösiland
    Zustimmungen:
    2
    Kekse:
    205
    Erstellt: 26.01.05   #3
    ok dies bedeutet also dass der tab stimmt, und ich es immer nur falsch betont habe...

    aber wie sieht es mit dem 2.teil aus?? hat für den jemand ne antwort???
     
  4. JohnniBassplayer

    JohnniBassplayer Registrierter Benutzer

    Im Board seit:
    13.09.04
    Zuletzt hier:
    11.10.15
    Beiträge:
    519
    Ort:
    daheim(zu Hause)
    Zustimmungen:
    0
    Kekse:
    209
    Erstellt: 27.01.05   #4
    @Aqua
    bitte ins git.forum verschieben.
     
  5. Lord of Paaren

    Lord of Paaren Registrierter Benutzer

    Im Board seit:
    26.09.04
    Zuletzt hier:
    14.10.10
    Beiträge:
    145
    Ort:
    Berlin
    Zustimmungen:
    0
    Kekse:
    36
    Erstellt: 27.01.05   #5
    ich glaub aqua is im urlaub
     
  6. Zack ab!

    Zack ab! Registrierter Benutzer

    Im Board seit:
    12.12.04
    Zuletzt hier:
    9.05.15
    Beiträge:
    793
    Zustimmungen:
    1
    Kekse:
    909
    Erstellt: 27.01.05   #6
    Na tol´l, jetzt müssen wir einem verlorenen Gitarrenspieler auch noch obdach gewähren...
     
  7. A.P.

    A.P. Threadersteller Registrierter Benutzer

    Im Board seit:
    23.11.04
    Zuletzt hier:
    22.03.09
    Beiträge:
    969
    Ort:
    Ösiland
    Zustimmungen:
    2
    Kekse:
    205
    Erstellt: 27.01.05   #7
    tschuldigung...

    hab aus versehen ins falsche thema gestellt, aber wie kann ich den thread selber verschieben???
     
  8. Exciter

    Exciter Registrierter Benutzer

    Im Board seit:
    22.08.03
    Zuletzt hier:
    18.07.10
    Beiträge:
    1.318
    Zustimmungen:
    2
    Kekse:
    1.466
    Erstellt: 27.01.05   #8
    Geht nicht, musst auf nen Mod warten
     
Die Seite wird geladen...

mapping