Peter Cornelius Intro (Reif für die Insel)

von michellahayn, 30.09.05.

  1. michellahayn

    michellahayn Registrierter Benutzer

    Im Board seit:
    05.08.04
    Zuletzt hier:
    9.02.10
    Beiträge:
    60
    Zustimmungen:
    0
    Kekse:
    10
    Erstellt: 30.09.05   #1
    Hallo,

    wer kann mir sagen wie das Intro von Reif für die insel gespielt wird?
    Die Rhytmik ist klar nur die Töne fehlen mir
     
  2. Loomis

    Loomis Registrierter Benutzer

    Im Board seit:
    19.08.03
    Zuletzt hier:
    25.11.16
    Beiträge:
    1.868
    Ort:
    Mountains of Madness
    Zustimmungen:
    18
    Kekse:
    1.818
    Erstellt: 03.10.05   #2
    So, sorry für die späte Antwort. Ich hatte zwischendurch ganz vergessen, dass ich das hier machen wollte...:rolleyes:

    So, also das Keyboardintro ist in C-Dur und A-moll.


    Die Melodie geht so:
    Code:
    e|---------------------------------------------------------------------------------------------------
    H|---------------------------------------------------------------------------------------------------
    G|---------5---------5--4--2---------2---------------------------------------------------------------
    D|--------------------------------------------------------------------------------------------5------
    A|--3--3------3----------------0--0-----0------0--2--3-------------5--------5--7--5------------------
    D|-----------------------------------------------------------0--0------0----------------5--5-----5---
    
    Wie du siehst habe ich dazu die tiefe E-Saite auf D heruntergestimmt, damit ich das tiefe D spielen kann.


    Normalerweise wäre das C am Anfang auch noch eine Oktave tiefer, aber ich denke, das geht auch so.

    Falls du gar nicht umstimmen kannst oder willst kannst du es auch so spielen:
    Code:
    e|---------------------------------------------------------------------------------------------------
    H|---------------------------------------------------------------------------------------------------
    G|---------5---------5--4--2---------2---------------------------------------------------------------
    D|--------------------------------------------------------------------------------------------5------
    A|--3--3------3----------------0--0-----0------0--2--3---5--5--5--5------5--7--5---------------------
    E|--------------------------------------------------------------------------------------3--3-----3---
    
    Klingt halt dann da, wo das tiefe D käme nicht so schön.

    Wenn es dir geholfen hat und wenn du möchtest kannst mich ja dafür bewerten ;)
    P.S.: Bewerten kann man auch ohne Rep-Power, ich bekomme dann keine Punkte, aber es freut mich trotzdem.
     
  3. michellahayn

    michellahayn Threadersteller Registrierter Benutzer

    Im Board seit:
    05.08.04
    Zuletzt hier:
    9.02.10
    Beiträge:
    60
    Zustimmungen:
    0
    Kekse:
    10
    Erstellt: 04.10.05   #3
    Danke hat mir sehr geholfen.
    Brauch bloß mal nen Tip wie ich bewerten kann?

    Gruß Michel
     
  4. Loomis

    Loomis Registrierter Benutzer

    Im Board seit:
    19.08.03
    Zuletzt hier:
    25.11.16
    Beiträge:
    1.868
    Ort:
    Mountains of Madness
    Zustimmungen:
    18
    Kekse:
    1.818
    Erstellt: 04.10.05   #4
    In meinem Beitrag unten links auf die Waage klicken.

    Danke!

    Gruß Loomis
     
  5. michellahayn

    michellahayn Threadersteller Registrierter Benutzer

    Im Board seit:
    05.08.04
    Zuletzt hier:
    9.02.10
    Beiträge:
    60
    Zustimmungen:
    0
    Kekse:
    10
    Erstellt: 07.10.05   #5
    kannst mir vieleicht sagen wie man seine Beiträger auch wieder löschen kann hab bis jetzt nix dazu in der >Hilfe gefunden.

    Gruß Michi
     
  6. Loomis

    Loomis Registrierter Benutzer

    Im Board seit:
    19.08.03
    Zuletzt hier:
    25.11.16
    Beiträge:
    1.868
    Ort:
    Mountains of Madness
    Zustimmungen:
    18
    Kekse:
    1.818
    Erstellt: 07.10.05   #6
    Du kannst die Posts glaube ich selbst nicht löschen. Musst halt ne private Nachricht an einen Moderator schicken und da fragen ob er/sie es löscht.
     
Die Seite wird geladen...

mapping