Placebo - Every You, Every Me. Akkord-Problemas, senor.

von Oliver_, 15.01.07.

  1. Oliver_

    Oliver_ Registrierter Benutzer

    Im Board seit:
    15.04.05
    Zuletzt hier:
    23.11.16
    Beiträge:
    2.755
    Ort:
    Frankfurt am Main
    Zustimmungen:
    72
    Kekse:
    2.836
    Erstellt: 15.01.07   #1
    Hallo,
    sitz hier grad mit meinem Gitarrero und will, dass er das Lied richtig spielt und nicht so, wie grad (von der Akkordfolge her):
    Code:
          E   E   E   E   E   E   E   E     E  E  E  E  E  E  E  E   
    E||----------------------------------|--------------------------|
    B||----------------------------------|--------------------------|
    G||----------------------------------|--------------------------|
    D||--10--10--10--10--10--10--10--10--|--6--6--6--6--8--8--8--8--|
    A||---8---8---8---8---8---8---8---8--|--4--4--4--4--6--6--6--6--|
    E||----------------------------------|--------------------------|
    
    
       E   E   E   E   E   E   E   E     E  E  E  E  E  E  E  E   
    ----------------------------------|--------------------------|
    ----------------------------------|--------------------------|
    ----------------------------------|--------------------------|
    --10--10--10--10--10--10--10--10--|--6--6--6--6--8--8--8--8--|
    ---8---8---8---8---8---8---8---8--|--4--4--4--4--6--6--6--6--|
    ----------------------------------|--------------------------|
    
    
       E   E   E   E   E   E   E   E     E  E  E  E  E  E  E  E   
    ----------------------------------|--------------------------|
    ----------------------------------|--------------------------|
    ----------------------------------|--------------------------|
    --10--10--10--10--10--10--10--10--|--6--6--6--6--8--8--8--8--|
    ---8---8---8---8---8---8---8---8--|--4--4--4--4--6--6--6--6--|
    ----------------------------------|--------------------------|
    
    
       E   E   E   E   E   E   E   E     E  E  E  E  E  E  E  E   
    ----------------------------------|--------------------------|
    ----------------------------------|--------------------------|
    ----------------------------------|--------------------------|
    --10--10--10--10--10--10--10--10--|--6--6--6--6--8--8--8--8--|
    ---8---8---8---8---8---8---8---8--|--4--4--4--4--6--6--6--6--|
    ----------------------------------|--------------------------|
    
    
       E   E   E   E   E   E   E   E     E  E  E  E  E  E  E  E   
    ----------------------------------|--------------------------|
    ----------------------------------|--------------------------|
    ----------------------------------|--------------------------|
    --10--10--10--10--10--10--10--10--|--6--6--6--6--8--8--8--8--|
    ---8---8---8---8---8---8---8---8--|--4--4--4--4--6--6--6--6--|
    ----------------------------------|--------------------------|
    
    
       E   E   E   E   E   E   E   E     E  E  E  E  E  E  E  E                     
    ----------------------------------|--------------------------|-----|-----|-----|
    ----------------------------------|--------------------------|-----|-----|-----|
    ----------------------------------|--------------------------|-----|-----|-----|
    --10--10--10--10--10--10--10--10--|--6--6--6--6--8--8--8--8--|-----|-----|-----|
    ---8---8---8---8---8---8---8---8--|--4--4--4--4--6--6--6--6--|-----|-----|-----|
    ----------------------------------|--------------------------|-----|-----|-----|
    Anschlagsmuster ist fast ganz richtig.
    Der Moll-Akkord in der Variation könnte ein Am sein, haben wir festgestellt.

    Am besten wäre aber wohl aber eine paar gute Tabs zu haben bzw. eine notierte Akkordfolge. Wie der Typ hier das spielt, gefiel uns: YouTube - placebo every you every me
    Kann das jemand fix notieren oder kennt jemand gute Tabs für das Lied?
    Problem ist leider auch, dass wir das drei Halbtöne hoch transponieren mussten wegen Gesang, daher man mit den meisten Tabs nicht viel anfangen kann... etc.

    Ich kenn mich mit Gitarrenzeuch nich aus :) Hoffe mir kann jemand helfen! :great:

    Gruß
     
Die Seite wird geladen...

mapping