Powerchord Fragen

von Ventus, 14.09.05.

Status des Themas:
Es sind keine weiteren Antworten möglich.
  1. Ventus

    Ventus Registrierter Benutzer

    Im Board seit:
    07.09.05
    Zuletzt hier:
    20.11.05
    Beiträge:
    5
    Ort:
    Altena
    Zustimmungen:
    0
    Kekse:
    10
    Erstellt: 14.09.05   #1
    Hallo Leute!
    Wie unterscheide ich bei Powerchords (zb in dieser Tabelle)

    PHP:
     E     F     F#    G     G# A     Bb H     C     C# D    D# E

    e|-----|-----|-----|-----|-----|-----|-----|-----|-----|-----|----|----|----|
    h|-----|-----|-----|-----|-----|-----|-----|-----|-----|-----|----|----|----|
    G|-----|-----|-----|-----|-----|-----|-----|-----|-----|-----|----|----|----|
    D|--2--|--3--|--4--|--5--|--6--|--7--|--8--|--9--|-10--|-11--|-12-|-13-|-14-|
    A|--2--|--3--|--4--|--5--|--6--|--7--|--8--|--9--|-10--|-11--|-12-|-13-|-14-|
    E|-----|--1--|--2--|--3--|--4--|--5--|--6--|--7--|--8--|--9--|-10-|-11-|-12-|


        
    A     Bb H     C     C#    D     D# E     F    F# G    G# A

    e|-----|-----|-----|-----|-----|-----|-----|-----|-----|-----|----|----|----|
    h|-----|-----|-----|-----|-----|-----|-----|-----|-----|-----|----|----|----|
    G|--2--|--3--|--4--|--5--|--6--|--7--|--8--|--9--|-10--|-11--|-12-|-13-|-14-|
    D|--2--|--3--|--4--|--5--|--6--|--7--|--8--|--9--|-10--|-11--|-12-|-13-|-14-|
    A|-----|--1--|--2--|--3--|--4--|--5--|--6--|--7--|--8--|--9--|-10-|-11-|-12-|
    E|-----|-----|-----|-----|-----|-----|-----|-----|-----|-----|----|----|----|
    Dur und Moll?
    Oder hab ich etwas falsch verstanden und da gibt es keinen Unterschied?

    Und dann wüsste ich noch gerne worin sich die Chords in oben genannter Tabelle unterscheiden. (Da es sie ja in jeder Zeile einmal gibt)


    Vielen Dank,
    Ventus
     
  2. Loomis

    Loomis Registrierter Benutzer

    Im Board seit:
    19.08.03
    Zuletzt hier:
    6.12.16
    Beiträge:
    1.868
    Ort:
    Mountains of Madness
    Zustimmungen:
    19
    Kekse:
    1.818
    Erstellt: 14.09.05   #2
    Powerchords bestehen nur aus dem Grundton, der Quinte und evtl. der Oktave.

    Das heißt du kannst nicht zwischen Dur und Moll unterscheiden, da der Unterschied ja in der großen bzw. kleinen Terz liegt, die es hier ja dann nicht gibt.

    Siehe dazu auch hier

    Zu der Tabelle:
    Die Chords in der unteren Zeile sind dann halt höher gespielt.
     
  3. Fun Tom

    Fun Tom Registrierter Benutzer

    Im Board seit:
    21.07.05
    Zuletzt hier:
    26.10.09
    Beiträge:
    429
    Ort:
    München
    Zustimmungen:
    1
    Kekse:
    212
    Erstellt: 15.09.05   #3
    Vielleicht versuchst du dir erst mal folgende Fragen zu beantworten:
    Worin unterscheiden sich die Töne, die du auf dem selben Bund, nur eine Saite höher spielst? Worin unterscheiden sich die Akkorde, wenn du einen Barrè-Griff verschiebst?
    Also ein bisschen Mitdenken ist schon erlaubt, ehrlich...

    Wie oben beschrieben bestehen Powerchords aus Grundton und Quinte.
    Der Ton, den dein Zeigefinger greift, ist in den Akkordschemata oben der Grundton.

    G---5---C---GT (oktaviert)
    D---5---G---Quint
    A---3---C---GT
    E---x--------

    ist also ein C Powerchord oder C5, weil der Grunton auf C liegt.

    Preisfrage: Wie heiß der hier?
    D---5---?---GT
    A---5---?---Quint
    E---3---?---GT


    Falls deine Frage so zu verstehen war:

    Worin unterscheiden sich
    G---x---
    D---5---
    A---5---
    E---3---

    und

    G---12---
    D---12---
    A---10---
    E---x---

    Du hast jeden Ton mehrfach auf dem Griffbrett.
    Ton heißt aber nicht zwangsläufig gleiche Tonhöhe, die Gitarre deckt ja mehrere Oktaven ab.

    Auf jeder Position kannst du einen Powerchord (oder jeden anderen Akkord) aufbauen, wenn du den Ton als GT siehst.
    Die 2 G5 oben haben die gleichen Töne, nur in unterschiedlichen Oktaven.
     
  4. SickSoul

    SickSoul HCA - Gitarren Ex-Moderator HCA

    Im Board seit:
    26.10.04
    Zuletzt hier:
    9.12.16
    Beiträge:
    6.400
    Ort:
    Irgendwo im Nirgendwo
    Zustimmungen:
    1.777
    Kekse:
    39.356
    Erstellt: 15.09.05   #4
    Frage geklärt => Thread closed

    MfG
     
Die Seite wird geladen...

Status des Themas:
Es sind keine weiteren Antworten möglich.
mapping