Problem bei Paradise City

von Byakugan, 05.11.05.

  1. Byakugan

    Byakugan Registrierter Benutzer

    Im Board seit:
    15.10.05
    Zuletzt hier:
    12.02.07
    Beiträge:
    179
    Zustimmungen:
    0
    Kekse:
    10
    Erstellt: 05.11.05   #1
    hi

    ich hab n kleines problem beim Lead-intro (vor dem ersten verse) von Paradise city:

    Code:
                                                                
    |----------------------------------------|
    |----------------------15----------------|
    |--------12-12~-----------14b--14r-12----|
    |--12h14---------14-12----------------14-|
    |----------------------------------------|
    |----------------------------------------|
    
    
                                                                            
    ----------------------------------------|------------------------------|
    ----------------------15----------------|--13b---13b---13--------------|
    --------12-12~-----------14b--14r-12----|--------------------14r-12----|
    --12h14---------14-12----------------14-|---------------------------14-|
    ----------------------------------------|------------------------------|
    ----------------------------------------|------------------------------|
    
    
    
    --------------------|
    --------------------|
    --14~---------------|
    --------------------|
    --------------------|
    --------------------|
    da problem ist nicht der speed an sich, das lässt sich ja aufbauen, aber bei dieser geschwindigkeit treff ich einfach die bendings nicht mehr und dann klingts richtig scheisse...

    hat mir da evtl. jemand nen tipp?
     
  2. Andreas Gerhard

    Andreas Gerhard Registrierter Benutzer

    Im Board seit:
    04.03.05
    Zuletzt hier:
    8.07.16
    Beiträge:
    1.086
    Ort:
    Goldbach
    Zustimmungen:
    6
    Kekse:
    621
    Erstellt: 05.11.05   #2
    üben ^^
    sonst gibts da nix
     
  3. Byakugan

    Byakugan Threadersteller Registrierter Benutzer

    Im Board seit:
    15.10.05
    Zuletzt hier:
    12.02.07
    Beiträge:
    179
    Zustimmungen:
    0
    Kekse:
    10
    Erstellt: 05.11.05   #3
    lol xD

    ich dachte jetzt vll. an übungen die das bending trainieren... falls jemand sowas kennt, wär ich froh ^^

    und sonst jamme ich einfach das Knockin' on heavens door solo so lange durch bis es auf dem speed läuft und versuchs dann nochmal :screwy:
     
  4. Alhric

    Alhric Registrierter Benutzer

    Im Board seit:
    15.09.05
    Zuletzt hier:
    10.11.13
    Beiträge:
    79
    Ort:
    Porta Westfalica
    Zustimmungen:
    0
    Kekse:
    47
    Erstellt: 05.11.05   #4
    ich hasse dieses Teil... ich treffe da nie die bendings richtig und alles klingt schief^^
     
  5. LennyNero

    LennyNero HCA Gitarre: Racks & MIDI Ex-Moderator HCA

    Im Board seit:
    02.12.03
    Zuletzt hier:
    9.12.16
    Beiträge:
    17.525
    Ort:
    Wetzlar
    Zustimmungen:
    288
    Kekse:
    35.627
    Erstellt: 05.11.05   #5
    Offensichtlich ist "Speed" doch ein Problem, und das sehe ich immer wieder bei meinen Schuelern: da klappt eine Passage in Originalgeschwindigkeit, und sie sind der MEinung sie haben die "Speed" drauf, und an den Schwierigeren Stellen klappt es dann nicht.


    Andy.gR hat es eigentlich schon geschrieben: ueben, und zwar so, das du das ganze Stueck in einer Geschwindigkeit sauber spielen kannst... erst dann kannst du "Speed" hinzufuegen (und dann irgendwann auch erzaehlen das "speed an sich nicht das problem ist").
     
  6. Byakugan

    Byakugan Threadersteller Registrierter Benutzer

    Im Board seit:
    15.10.05
    Zuletzt hier:
    12.02.07
    Beiträge:
    179
    Zustimmungen:
    0
    Kekse:
    10
    Erstellt: 05.11.05   #6
    ich meine damit nur dass der speed für ton-/saitenwechsel nicht das problem sind, nur verhaue ich ab einer gewissen geschwindigkeit immer die bendings... ok kann man auch speedproblem nennen ^^
     
  7. Kettens?genKalle

    Kettens?genKalle Registrierter Benutzer

    Im Board seit:
    18.09.05
    Zuletzt hier:
    23.02.12
    Beiträge:
    87
    Ort:
    Bonn
    Zustimmungen:
    0
    Kekse:
    106
    Erstellt: 05.11.05   #7
    Ich würd sowas üben:

    Code:
    |-------------------------------------------------|
    |----------6------6--------------8--------8-------|
    |----8b10------8b10-------10b12-------10b12-------|
    |-------------------------------------------------|
    |-------------------------------------------------|
    |-------------------------------------------------|
    
    usw...und das dann den ganzen Hals hoch! Am besten mit Metronom hochspeeden! Und achte darauf das die Oktav so sauber wie möglich ist!

    Für die Halbtonbends kannst du dir ja 'ne ähnliche Übung überlegen!

    greetz,
    Patrick
     
Die Seite wird geladen...

mapping