problem mit einem song

von Spitfire, 25.04.04.

  1. Spitfire

    Spitfire Registrierter Benutzer

    Im Board seit:
    24.04.04
    Zuletzt hier:
    30.04.04
    Beiträge:
    7
    Zustimmungen:
    0
    Kekse:
    10
    Erstellt: 25.04.04   #1
    Hi,

    ich hab ehrlich gesagt ein Problem mit einem Song, es ist Jhonny B.Goode ich habe am Anfang ja mein Intro wo ich eigentlich auch von vorne bis hinten durchblicke nur nach dem Intro kommt in meinem Songbook diese Passage hier:

    Code:
    |---------------------------|
    |---------------------------|
    |---------------------------|
    |----8-8-10-8-8-8-10-8------|
    |----6-6--6-6-6-6--6-6------|
    |---------------------------|
    
    Bitte nicht so auf die Lücken achten hab das mal 
    provisorisch aufgetippt weil ich das ausm Buch hab 
    da kann ich leider nichts kopieren und einfügen
    
    danach kommt das nochmal alles eine Saite tiefer gespielt und danach im original alles um 2 Bünde höher, dann wieder das original dann wieder alles eine saite tiefer

    Also spielen kann ich das wohl, aber ich weiß nicht wo ich damit hin soll!? Also direkt nach dem Intro kommt es irgendwie nicht das hört sich ganz anders an,.. ich glaube das muss irgendwo in den Hintergrund aber dann fehlt mir irgendwie der Teil der nach dem (will mal sagen) 1.Teil des Intros kommt weil da sind ja bevor der Gesang anfängt so halbwegs zwei verschiedene Parts. Ich mach mal - wenn mich keiner versteht - ein Photo von der Tabulatur dann kann es mal einer selber spielen.
     
  2. clemens

    clemens Registrierter Benutzer

    Im Board seit:
    01.02.04
    Zuletzt hier:
    7.10.08
    Beiträge:
    2.384
    Ort:
    Austria
    Zustimmungen:
    9
    Kekse:
    668
    Erstellt: 26.04.04   #2
    Hey, den Song spiel ich auch grad! Klingt echt ziemlich cool...

    Jedenfalls kommt da nach dem Intro eine ganz normale 12 bar blues progression, wie das halt im Rock'n'roll so üblich ist. Die Grundtöne der Powerchords sind der Reihe nach Bb, Eb, Bb, F, Bb.

    Wenn du nicht weißt, wann du das spielen sollst... naja, hör dir den Song doch einfach an! Alternativ ist die Powertab-Version von dem Song zu empfehlen, sieh mal auf http://www.powertabs.net.

    Oder ist dein Problem, dass dir noch ein Teil vom Intro fehlt?
     
  3. Spitfire

    Spitfire Threadersteller Registrierter Benutzer

    Im Board seit:
    24.04.04
    Zuletzt hier:
    30.04.04
    Beiträge:
    7
    Zustimmungen:
    0
    Kekse:
    10
    Erstellt: 26.04.04   #3
    hier nun das versprochene Bild:

    bild

    zum Bild: die erste Reihe ist total logisch und das is eben das intro nur eben nur halb danach kommt noch was anderes, das was da aufgeschrieben ist, wird viel tiefer gespielt und was im Lied vorkommt ist viel höher.

    Auf der powertab seite war ich auch scho aber ich kann das format nicht öffnen womit mach ich das?

    EDIT: Ich hab mir das Lied nochmal angehört und was bei mir steht ist nur der Hintergrund (will ich mal sagen) also mehr sowas was von einer anderen Gitarre im Hintergrund gespielt wird,... eben der Blues dazu wie du schon sagtest,.. nur ich suche halt die Frontstimme und ich glaube die steht bei mir nicht drin :-/
     
  4. Comrade

    Comrade Registrierter Benutzer

    Im Board seit:
    19.02.04
    Zuletzt hier:
    4.01.14
    Beiträge:
    1.894
    Ort:
    Ingolstadt
    Zustimmungen:
    2
    Kekse:
    276
    Erstellt: 26.04.04   #4
    Hier gibts den Editor:
    http://www.power-tab.net/downloads.php
     
  5. Spitfire

    Spitfire Threadersteller Registrierter Benutzer

    Im Board seit:
    24.04.04
    Zuletzt hier:
    30.04.04
    Beiträge:
    7
    Zustimmungen:
    0
    Kekse:
    10
    Erstellt: 26.04.04   #5
    k danke :-)
     
  6. j?rg

    j?rg Registrierter Benutzer

    Im Board seit:
    20.12.03
    Zuletzt hier:
    25.12.15
    Beiträge:
    43
    Zustimmungen:
    1
    Kekse:
    10
    Erstellt: 26.04.04   #6
    Hallole

    schrieb mir doch mal den Namen von dem Buch auf ,,ich such nömlich immer was neues zum Spielen..


    danke schön..
     
  7. Spitfire

    Spitfire Threadersteller Registrierter Benutzer

    Im Board seit:
    24.04.04
    Zuletzt hier:
    30.04.04
    Beiträge:
    7
    Zustimmungen:
    0
    Kekse:
    10
    Erstellt: 28.04.04   #7
    Rock Guitar Originals von Wieland Harms

    Songs enthalten:

    rock around the clock (Bill Haley)
    Johnny B. goode (Chuck Berry)
    You really got me (The kinks)
    Sunshine of Love (Cream)
    La Grange (ZZ Top)
    While my guitar gently weeps (jimi hendrix)
    Eruption (Van Halen)
    Jump (Van Halen)
    Samba Pa Ti (Santana)
    Sweet Home Alabama (Lynryd Skynryd)
    Cocaine (J.J.Cale)
    Beat It (Michael Jackson)
    Sultans of swing (Dire Straits)
    Hold The Line (Toto)
    Another Brick In the wall Part II (Pink Floyd)
    Owner of a lonely Heart (Yes)
    Whole Lotta Love (Led Zeppelin)
    Empty Rooms (Gary Moore)
    Capriccio No.24 (Niccoló Paganini)

    gibt es bei amazon.de unter

    zum Johnny B. Goode song: mir fehlt die Gitarre die das Vordergrund geräusch spielt (also nicht die, die den Blues part spielt) Wer den song als mp3 hat ,... ist von sekunde 6 zu sekunde 16 ich mach mal ein bild von allen seiten ich glaube nämlich der Part ist da nicht drin, vielleicht kann sich ja der eine oder andere das mal anschaun und mir weiterhelfen

    Edit: hier sind die bilder, sind drei seiten ist einigermaßen scharf sonst gehts auch gut mit ner vergrößerung müsste man also eigentlich alles lesen können


    Seite1
    Seite2
    Seite3
     
  8. clemens

    clemens Registrierter Benutzer

    Im Board seit:
    01.02.04
    Zuletzt hier:
    7.10.08
    Beiträge:
    2.384
    Ort:
    Austria
    Zustimmungen:
    9
    Kekse:
    668
    Erstellt: 29.04.04   #8
    So, ich hab dir jetzt mal das Intro so wie ich es spiele rauskopiert (aus PowerTab), ich finde es klingt ganz gut so (auch wenn es eine etwas andere Version ist).

    Code:
      Gtr I
    |---------------|-6-6-6-6-6-6-6-6-|-6---------------|------------------|
    |-------------6-|-6-6-6-6-6-6-6-6-|-6-9-8-6---------|------------------|
    |---------6h7---|-----------------|---------6h7-----|------------------|
    |------/8-------|-----------------|-------------8-6-|-8-8-8-8-8-8-8-8--|
    |---------------|-----------------|-----------------|-8-8-8-8-8-8-8-8--|
    |---------------|-----------------|-----------------|------------------|
    
    
    |----------------------|-6--6----------6-----------|
    |-6---8-6--------------|-6--6----------6-----------|
    |-6-7-8-6h7---8b10-(8)-|------8b10-(8)---8b10-(8)--|
    |-----------8----------|---------------------------|
    |----------------------|---------------------------|
    |----------------------|---------------------------|
    
    
    |-6-----------6-----------6---|
    |-6-----------6-----------6---|
    |---8b10-(8)----8b10-(8)------|
    |-----------------------------|
    |-----------------------------|
    |-----------------------------|
    
    
    |-----------6-----------6-----------|
    |-----------6-----------6-----------|
    |-8b10-(8)----8b10-(8)----8b10-(8)--|
    |-----------------------------------|
    |-----------------------------------|
    |-----------------------------------|
    
    
    |-6-----------6-----------6--|-----------6--9-8-6----|
    |-6-----------6-----------6--|--------------------9--|
    |---8b10-(8)----8b10-(8)-----|-8b10-(8)--------------|
    |----------------------------|-----------------------|
    |----------------------------|-----------------------|
    |----------------------------|-----------------------|
    
    
    |-----------------|-----------------|----------------||
    |-8-6-----8---6---|---------8p6-----|----------------||
    |-----6-7-8---6h7-|-----6---8p6h7---|----------------||
    |-----------8-----|-8-8---8-------8-|--8-8-8-8-8-8---||
    |-----------------|-----------------|--8-8-8-8-8-8-8-||
    |-----------------|-----------------|--------------6-||
    
    ...und hier fängt dann wie schon besprochen der 12 bar blues an.

    Versuch das einfach mal und sag mir doch, ob das der Part ist, der dir gefehlt hat.
     
  9. Spitfire

    Spitfire Threadersteller Registrierter Benutzer

    Im Board seit:
    24.04.04
    Zuletzt hier:
    30.04.04
    Beiträge:
    7
    Zustimmungen:
    0
    Kekse:
    10
    Erstellt: 30.04.04   #9
    jo genau danke dir, das ist genau der part der mir fehlte nach der ersten Zeile :-D
     
Die Seite wird geladen...

mapping