Probleme nach dem Intro von Voodoo Child

von neill, 26.01.08.

  1. neill

    neill Registrierter Benutzer

    Im Board seit:
    03.06.07
    Zuletzt hier:
    1.07.11
    Beiträge:
    11
    Zustimmungen:
    0
    Kekse:
    10
    Erstellt: 26.01.08   #1
    Erstmal hallo! :)

    ich hoffe, ihr könnt mir helfen. ich habe mir vor ein paar tagen mein erstes wah-pedal gekauft, und wollte gleich loslegen mit voodoo child von jimi hendrix :o. aber ich habe mich ein bisschen zu früh gefreut. ich krieg das timing von dieser stelle hier überhaupt nicht hin (bzw ich weiß nicht, nach welchem tab ich vorgehen soll, da relativ viele versionen im internet kursieren):

    Nr 1.

    ---------------------------------------------|-----------------------------
    ---------------------------------------------|-----------------------------
    ---0-2(3)2p0-----------------0-2(3)2p0-------|-14(16)-14-14(16)14-12~~-----
    -2----------2--2-2-----2-----2---------2-----|-----------------------------
    -2-------------2-2---------2-------------2-2-|-----------------------------
    -0-------------0-0-3(4)----0-------------0-0-|------------------------12\--

    wah on off
    --------------------------------------------------------------
    --------------------------------------------------------------
    ---0-2(3)2p0------2(4)..........(3)2-2b3b2p0-----------1--1-1-
    -------------2--------------------------------------2--2--2-2-
    -------------------------------------------------------2--2-2-

    Nr 2.

    00:32
    e|--------------------------|---------------------0~~~~~~~----|
    B|--------------------------|---------------------------------|
    G|-0---0-2b(4)r2p0-0--------|-0---0---0-2b(4)r2p0x---0--0-----|
    D|-2---2-----------2------2-|-2---2---2--------------2--2-----|
    A|-2---2-----------2--------|-2---2---2--------------2--2-----|
    E|-0---0-----------0-0h3b---|-0---0---0--------------0--0--3b-|

    e|-------------------------------|----------------------------|
    B|-------------------------------|----------------------------|
    G|-14b(16)--14--14b(16)r14p12~~~~|----0--0--0-2b(4)r2p0----0-0|
    D|-------------------------------|14\22--2--2--------------2-2|
    A|-------------------------------|----2--2--2--------------2-2|



    hat vielleicht irgendwer diese stellen mit notenwerten, oder sogar ein gutes video, das diese stelle langsam erarbeitet?

    vielen dank im vorraus, neill
     
  2. Robert60

    Robert60 Registrierter Benutzer

    Im Board seit:
    11.01.08
    Zuletzt hier:
    2.09.09
    Beiträge:
    118
    Zustimmungen:
    0
    Kekse:
    241
  3. neill

    neill Threadersteller Registrierter Benutzer

    Im Board seit:
    03.06.07
    Zuletzt hier:
    1.07.11
    Beiträge:
    11
    Zustimmungen:
    0
    Kekse:
    10
    Erstellt: 26.01.08   #3

    hallo!

    danke für den link, auf den bin ich bei meiner suche auch schon gestoßen. ist leider noch immer viel zu schnell für mich bei der stelle :(
     
  4. Wödan

    Wödan Registrierter Benutzer

    Im Board seit:
    01.04.05
    Zuletzt hier:
    22.10.14
    Beiträge:
    1.421
    Zustimmungen:
    3
    Kekse:
    1.093
    Erstellt: 26.01.08   #4
    An sich können beide Stimmen, Hendrix hat ja immermal was verändert, vor allem live. Deshalb hast gerade bei ihm gut was gefällt, IMO. Setz die deshalb nicht so auf ein genaues Tab fest, spiel die Version, die du lieber magst.
     
  5. neill

    neill Threadersteller Registrierter Benutzer

    Im Board seit:
    03.06.07
    Zuletzt hier:
    1.07.11
    Beiträge:
    11
    Zustimmungen:
    0
    Kekse:
    10
    Erstellt: 26.01.08   #5
    das ist bei mir leider das problem. ich wäre froh wenn ich diese stelle wenigstens auf einer weise spielen könnte. nur ich kriegs nicht hin. :( ich weiß nicht, wie lange ich das bending halten muss, wie oft den 0-2-2 akkord anschlagen muss etc...(deshalb wäre ein tab mit notenwerten, also wo achtelnoten usw eingezeichnet sind, gold wert)

    ich weiß, es ist jetzt ein bisschen unverschämt, das zu verlangen, aber vielleicht hat einer gerade 10 minuten zeit und nimmt mir die stelle mit 50% geschwindigkeit auf und postet hier das tab, nachdem er spielt?
     
  6. neill

    neill Threadersteller Registrierter Benutzer

    Im Board seit:
    03.06.07
    Zuletzt hier:
    1.07.11
    Beiträge:
    11
    Zustimmungen:
    0
    Kekse:
    10
    Erstellt: 26.01.08   #6
  7. Robert60

    Robert60 Registrierter Benutzer

    Im Board seit:
    11.01.08
    Zuletzt hier:
    2.09.09
    Beiträge:
    118
    Zustimmungen:
    0
    Kekse:
    241
    Erstellt: 27.01.08   #7
    Great!
     
  8. neill

    neill Threadersteller Registrierter Benutzer

    Im Board seit:
    03.06.07
    Zuletzt hier:
    1.07.11
    Beiträge:
    11
    Zustimmungen:
    0
    Kekse:
    10
    Erstellt: 28.01.08   #8
    :) ...

    kann den teil mittlerweile schon recht ansehnlich spielen (wobei ich das mit dem dämpfen noch etwas üben sollte. am verstärker hört man sehr oft saiten klirren :rolleyes:)
    auch das benden wirkt sich ganz schön auf die fingerkuppen aus. meine hornhaut muss sich erst wieder an die beanspruchung gewöhnen. :D

    viel spaß noch beim üben!
     
Die Seite wird geladen...

mapping