pull off ?

von ATK, 18.03.06.

  1. ATK

    ATK Registrierter Benutzer

    Im Board seit:
    02.10.05
    Zuletzt hier:
    4.06.09
    Beiträge:
    261
    Ort:
    N ü r n b e r g
    Zustimmungen:
    0
    Kekse:
    42
    Erstellt: 18.03.06   #1
    Surf Rider
    (The Lively Ones)



    Intro :

    | . | . | . | . | . | . | . | . | . | . | . | . | . | . | . | .
    |-----------------|-----------------|-----------------|-----------------|
    |-----------------|-----------------|-----------------|-----------------|
    |-----------------|-----------------|-----------------|-----------------|
    |-----7-----5-----|-----7-----5-----|-----5-----3-----|-----5-----3-----|
    |-------5p7-------|-------5p7---7-5-|-------3p5-------|-------3p5---5-3-|
    |-5---------------|-5---------------|-3---------------|-3---------------|
    |

    E
    | . | . | . | . | . | . | . | . | . | . | . | . | . | . | . | .
    |-----------------|-----------------|-0---------------|-----------------|
    |-----------------|-----------------|-0---------------|-----------------|
    |-----------------|-----------------|-1---------------|-----------------|
    |-----3-----1-----|-----3-----1-----|-2---------------|-2-2-0-0---------|
    |-------1p3-------|-------1p3---3-1-|-2---------------|---------3-3-2-2-|
    |-1---------------|-1---------------|-0---------------|-----------------|



    p = pull off

    was ist pull off ?

    z.b.: 5p7

    heißt das, dass der 1te finger auf dem 5ten bund und der 2te auf dem 7ten bund ist und ich im 7ten bund anschlage und dan den 2ten finger wegnehme ?
     
  2. Korgun

    Korgun Registrierter Benutzer

    Im Board seit:
    05.06.05
    Zuletzt hier:
    26.04.10
    Beiträge:
    368
    Zustimmungen:
    1
    Kekse:
    116
    Erstellt: 18.03.06   #2
    Jap,..genau das heißt es.
     
  3. LennyNero

    LennyNero HCA Gitarre: Racks & MIDI Ex-Moderator HCA

    Im Board seit:
    02.12.03
    Zuletzt hier:
    9.12.16
    Beiträge:
    17.525
    Ort:
    Wetzlar
    Zustimmungen:
    288
    Kekse:
    35.627
    Erstellt: 18.03.06   #3
    Wie Korgun geschrieben hat, ja, das Pull-Off hast du richtig erklaert, allerdings ist es in den Tabs falsch notiert, denn ein Pull-Off geht vom hoeheren Bund in den tieferen (in diesem Falle also 7p5), vom tiefen in den hohen Bund ware ein Hammer-On (5h7).
     
Die Seite wird geladen...

mapping