Rape me - Nirvana

von 0li, 30.06.04.

  1. 0li

    0li Registrierter Benutzer

    Im Board seit:
    14.04.04
    Zuletzt hier:
    9.10.11
    Beiträge:
    186
    Zustimmungen:
    0
    Kekse:
    10
    Erstellt: 30.06.04   #1
    Würde gerne wissen wie man den Part hier am Besten greift... bzw ich will wissen wie kurt ihn gegriffen hat, werde daraus irgendwie net schlau



    --0----0---0----3--3-----|-------------------------|-------------------------|
    --0----0---0--0-0--0-----|-------2-----------------|-------------------------|
    --------------0-0--0-----|-------2-----------0-----|-------2-----------5-----|
    --2----2------0-0--0--0--|--2-------------x--0-----|-------2-----------5-----|
    --2----2------0-------0--|--0-------0--3--------3--|----------------5--------|
    --0----0--------3-----0--|-------------------------|--0-------0--3--------0--|



    -------------------------|-------------------------|-------------------------|
    -------2-----------5-----|-------------------0-----|-------2-----------5-----|
    -------2--------5--5-----|-------2-----------0-----|-------2-----------5-----|
    --2-------------5--------|-------2--------0--------|--2-------------5--5-----|
    --0-------0--3--------0--|----------------------0--|--0-------0--3--------0--|
    -------------------------|--0-------0--3--------0--|----------------------0--|



    -------------------------|-------------------------|
    -------0-----------0-----|-------2--------5--5-----|
    -------2-----------0-----|--2----2--------5--5-----|
    -------2--------0--------|--2----2--0--5--5--5-----|
    ----------------------0--|--0----------3--------0--|
    --0-------0--3--------0--|----------------------0--|
     
  2. Fastel

    Fastel Helpful & Friendly User HFU

    Im Board seit:
    11.04.04
    Zuletzt hier:
    6.12.16
    Beiträge:
    5.926
    Ort:
    Tranquility Base
    Zustimmungen:
    565
    Kekse:
    18.025
    Erstellt: 30.06.04   #2
    die tab ist ja nicht von kurt selbst denke ich ;)

    also ist das bestimmt auch nicht so wie er es gegriffen hat, sondern eben nur die "intrepretation" eines tabbers :)
     
  3. 0li

    0li Threadersteller Registrierter Benutzer

    Im Board seit:
    14.04.04
    Zuletzt hier:
    9.10.11
    Beiträge:
    186
    Zustimmungen:
    0
    Kekse:
    10
    Erstellt: 30.06.04   #3
    Ich denke scon dass das richtig ist, und ich hab auch nen Video hier auf dem man (leider net per nahaufnahme) sieht dass ers ungefähr so greift.

    Außerdem meine ich sogar dass der tab hier mit Hilfe eines offiziellen Notenbuches "korriegiert" wurde ;)

    EDIT: wollte nur wissen obs vielleicht nur ganz simple griffe sind die ich net (er-)kenne (von anfang mit A dur mal abgesehen)

    EDIT: Außerdem finde ich es immer wieder schön so hilfreiche Kommentare zu hören ^^
     
  4. Wes93

    Wes93 Registrierter Benutzer

    Im Board seit:
    26.12.03
    Zuletzt hier:
    10.05.05
    Beiträge:
    90
    Zustimmungen:
    0
    Kekse:
    10
    Erstellt: 30.06.04   #4
    Also ich würde das so spielen glaube ich

    Em ---> 3 ---> A ---> 0 ---> A ---> G ( powerarkord)
    0 0
    0 3 3
    0
    0
    3

    Verstanden? :D
     
  5. Thorn

    Thorn Registrierter Benutzer

    Im Board seit:
    03.04.04
    Zuletzt hier:
    12.06.16
    Beiträge:
    1.141
    Ort:
    Meppen
    Zustimmungen:
    1
    Kekse:
    104
    Erstellt: 30.06.04   #5
    Was genau rallst du daran denn nicht?
    Ich denke mal die Akkorde wie gleich der erste oder??

    ---0---
    ---0---
    -------
    ---2---
    ---2---
    ---0---

    Da greifst dz z.B E (moll) und dämpfst dabei die G saite mit dem Greiffinger ab!
     
  6. Wollschaf

    Wollschaf Registrierter Benutzer

    Im Board seit:
    09.06.04
    Zuletzt hier:
    2.08.04
    Beiträge:
    41
    Ort:
    Berlin
    Zustimmungen:
    0
    Kekse:
    10
    Erstellt: 30.06.04   #6
    ich glaube alle chords bis auf 2 sind normal gespielt (als chords)
    die 2 sind powerchords..
     
Die Seite wird geladen...

mapping