Repeatinglick-Sammlung

von Markus Gore, 08.01.07.

  1. Markus Gore

    Markus Gore Registrierter Benutzer

    Im Board seit:
    21.08.06
    Zuletzt hier:
    29.10.15
    Beiträge:
    474
    Ort:
    Düsseldorf, Germany
    Zustimmungen:
    0
    Kekse:
    405
    Erstellt: 08.01.07   #1
    Hi , ich bin auf der suche nach licks die man in soli einbauen kann . Tabt einfach mal eure lieblingslicks ab und postet sie ;)

    ich hab auch schon mal n paar :


    --8p--5------8p--5-------8p--5--------8p-5---
    ---------5----------5-----------5------------5--
    --------------------------------------------------
    --------------------------------------------------
    --------------------------------------------------
    --------------------------------------------------


    --8p-5--8p-5--------------------------------
    ---------------8p-5--8p-5-------------------
    ----------------------------7p-5--7p-5------
    ------------------------------------------7~~
    -----------------------------------------------
    -----------------------------------------------


    --8p-5p-0--8p-5p-0---------------------8p-5p-0--8p-5p-0
    ----------------------8p-5p-0--8p-5p-0-------------------
    -----------------------------------------------------------
    -----------------------------------------------------------
    -----------------------------------------------------------
    -----------------------------------------------------------


    P = Pull-Off
    H = Hammer-On
     
  2. Fastel

    Fastel Helpful & Friendly User HFU

    Im Board seit:
    11.04.04
    Zuletzt hier:
    5.12.16
    Beiträge:
    5.926
    Ort:
    Tranquility Base
    Zustimmungen:
    565
    Kekse:
    18.025
    Erstellt: 08.01.07   #2
    finde ich ein wenig sinnfrei... ein solo ist ein solo und ein lick ist ein lick
    ... selbst viele licks ergeben ja kein solo. naja so genau weiß ich über die definitionen auch nicht bescheid.
    zur sache selbst: find ich auch ein wenig sinnfrei. ein kurzes ... na gut nennen wir es mal lick, wirkt doch in jedem solo anders... ne ich versteh nicht was man von so ner auflistung von
    haben soll...[​IMG]
     
  3. TheKing

    TheKing Helpful & Friendly User HFU

    Im Board seit:
    09.10.05
    Zuletzt hier:
    6.08.14
    Beiträge:
    3.415
    Zustimmungen:
    16
    Kekse:
    7.075
    Erstellt: 08.01.07   #3
Die Seite wird geladen...

mapping