Richtig raushegört ?? Frage zu 2 Songs

von Marc02, 13.11.07.

  1. Marc02

    Marc02 Registrierter Benutzer

    Im Board seit:
    04.10.05
    Zuletzt hier:
    8.12.16
    Beiträge:
    1.408
    Ort:
    (wieder) Hannover
    Zustimmungen:
    1.071
    Kekse:
    15.430
    Erstellt: 13.11.07   #1
    Es geht ausschließlich um die Töne der Licks aus "Bad Case Of Lovin You von Robert Palmer.

    Der erste, der kommt beginnt auf H

    G --------------------------------------oder auch so------------------------------
    D ----------5--------------------------------------------------2-5-2------------------
    A -----5-7---7-5-----------------------------------------2-5--------5-2-------------
    E ---7------------7-000000000-------------------------------------------000000---


    Der zweite der kommt (während des Solo, bzw. der Bridge) beginnt meinen Ohren nach auf Cis aber da bin ich mir nicht sicher ob der so richtig ist.

    G ------------------------
    D ---2-4-5-4-2----------
    A -4------------4---------
    E -------------------------

    Oder spielt er ihn so (mit 16tel) :

    G----------------------
    D---2-454-2----------
    A-4----------4-2------
    E----------------------

    Danke für eure Hilfe.
     
Die Seite wird geladen...

mapping