Riff Raushören!

von DaveN, 26.01.05.

  1. DaveN

    DaveN Registrierter Benutzer

    Im Board seit:
    16.09.04
    Zuletzt hier:
    25.01.10
    Beiträge:
    454
    Zustimmungen:
    0
    Kekse:
    413
    Erstellt: 26.01.05   #1
    Hallo Leute!
    Da ich selber noch nicht sehr gut Riffs raushören kann, wollte ich euch bitten, mir bei folgendem Lied zu helfen!
    ( Ist das geilste Riff ever! )

    Klick ( 0.7 MB / ca. 30sec / MP3 )

    Danke euch schonvielmals!

    mfg
    Noob
    :)
     
  2. Mighty Scoop

    Mighty Scoop Registrierter Benutzer

    Im Board seit:
    11.01.05
    Zuletzt hier:
    8.10.13
    Beiträge:
    1.512
    Zustimmungen:
    8
    Kekse:
    1.457
    Erstellt: 26.01.05   #2
    Kann dir zwar net weiterhelfen aber das Riff ist echt geil. Sind auch ne Menge Effekte drinne. :eek:
     
  3. LoneLobo

    LoneLobo Mod Emeritus Ex-Moderator HCA

    Im Board seit:
    13.04.04
    Zuletzt hier:
    25.11.16
    Beiträge:
    8.457
    Ort:
    Österreich
    Zustimmungen:
    138
    Kekse:
    22.219
    Erstellt: 26.01.05   #3
    Ich probiers grade mal...ich versprech aber nix, ich mach sowas normal nich, weil ich mich dafür nicht gut genug fühle.

    Aber nen Versuch mach ich halt mal.
     
  4. Hans_3

    Hans_3 High Competence Award HCA

    Im Board seit:
    09.11.03
    Beiträge:
    16.146
    Zustimmungen:
    1.122
    Kekse:
    49.622
    Erstellt: 26.01.05   #4
    Die etwas vertrackte Rhythmik lässt sich hier schwer tabben, hier nur die blanken Zweiklänge (ohne sämtliche Anschläge)


    ------------------------------------
    ----8-7s8---7h8-7---5----------------------
    ----7-6s7---7---7------6-------------------
    9---------------------------7---------
    9------------------------------------
    ------------------------------------

    Dann von vorn, der 2. Durchgang endet schließlich mit Flageolets an den folgenden Positionen:
    -------------------
    ---------------------
    -----------------
    ---7--------------
    9-----7---12----
    --------------------

    Das Ganze wird übrigens nicht dem Plek sondern (Mark Knopfler-mäßig) mit Zeige- und Mittelfinger (bzw. Mittel-/Ringfinger) kräftig angezupft. Bei den kurzen Tonlängen wird gleichzeitig mit der linken und rechten Hand gedämpft, dann kommt das schön knackig.

    An der Rhythmik musste dann selber basteln, nachdem Du Ablauf und Umgreifen erstmal drauf hast.
     
  5. LoneLobo

    LoneLobo Mod Emeritus Ex-Moderator HCA

    Im Board seit:
    13.04.04
    Zuletzt hier:
    25.11.16
    Beiträge:
    8.457
    Ort:
    Österreich
    Zustimmungen:
    138
    Kekse:
    22.219
    Erstellt: 26.01.05   #5
    So...

    Zu dem Ergebnis hier bin ich gekommen, ist wahrscheinlich komplett falsch, aber vielleicht stellts wenigstens ne Grundlage dar, auf der man aufbauen kann:

    Code:
        Q=136
       4/4
        Gtr I
        W         Q  E E Q  E  E   E   E  H.
    ||----------|----------------|---------------|
    ||o---------|----------------|---------------|
    ||----------|----------------|---------------|
    ||--9-------|-9----9------12-|----11-12------|
    ||o-7-------|-7----7-9----10-|-----9-10------|
    ||----------|--------7-------|---------------|
    
    
       +E   Q  E  E  Q  E   E   E E H     +Q   Q  E  E  Q  E
    |---------------------|-------------|---------------------|
    |---------------------|-------------|---------------------|
    |---------------------|-------------|---------------------|
    |-(12)-12----12-------|-------------|-----11----11--------|
    |-(10)-10----10-12----|-9--10-9-9---|-(9)--9-----9-12-----|
    |---------------10----|-------------|--------------10-----|
    
    
      1.                                    2.
      Q.  Q.  Q   +E  H +Q.                   Q.  Q.   Q     +E     H   +Q.
    |-----------|-------------------------||--------------|---------------------|
    |-----------|------------------------o||--------------|---------------------|
    |-----------|-------------------------||--------------|---------------------|
    |-----------|-------------------------||-----<5>--<7>-|-(<7>)---------------|
    |-----9---5-|-(5)--------------------o||--------------|--------<7>-(<7>)----|
    |-----------|-----5-(5)---------------||--------------|---------------------|
    |
    |     Gtr I
    |     W                         +W            W                     +W
    |-----------|-------------------------||--------------|---------------------|
    |-----------|------------------------o||--------------|---------------------|
    |-----------|-------------------------||--------------|---------------------|
    |-----------|-------------------------||--------------|---------------------|
    |-----7-----|-------------------(7)--o||------7-------|-------------(7)-----|
    |-----5-----|-------------------(5)---||------5-------|-------------(5)-----|
    Und hier nochmal als Powertab-Link:

    Klickmich

    [e]Ahja, Hans hat was geantwortet...
    Nimm lieber seins, is wahrscheinlich 100mal richtiger als meins, er hat da gewaltig mehr Übung drin als ich...
     
Die Seite wird geladen...

mapping