Running Wild - Over The Rainbow

von joeythehippiegir, 24.01.05.

  1. joeythehippiegir

    joeythehippiegir Registrierter Benutzer

    Im Board seit:
    24.01.05
    Zuletzt hier:
    21.03.05
    Beiträge:
    3
    Zustimmungen:
    0
    Kekse:
    10
    Erstellt: 24.01.05   #1
    ZU HILF!!!
    hat irgendwer brauchbare basstabs von "Over The Rainbow" von RUNNING WILD? ist auf der Blazon Stone CD oben...:wink:

    rocking greez
    joey:rock:
     
  2. HellToPay

    HellToPay Registrierter Benutzer

    Im Board seit:
    20.01.04
    Zuletzt hier:
    16.06.16
    Beiträge:
    1.211
    Ort:
    Berlin
    Zustimmungen:
    7
    Kekse:
    593
    Erstellt: 24.01.05   #2
    "Uuuuuuuuundaaaa Joooooolly Roooooogaaaaaa... !!!" Sorry...
     
  3. profane666

    profane666 Gesperrter Benutzer

    Im Board seit:
    17.12.04
    Zuletzt hier:
    7.05.05
    Beiträge:
    190
    Zustimmungen:
    0
    Kekse:
    86
    Erstellt: 24.01.05   #3
    Ich kenn leider nur Running Wild von Judas Priest.
    Schonmal alle Tab Seiten durchsucht?
     
  4. joeythehippiegir

    joeythehippiegir Threadersteller Registrierter Benutzer

    Im Board seit:
    24.01.05
    Zuletzt hier:
    21.03.05
    Beiträge:
    3
    Zustimmungen:
    0
    Kekse:
    10
    Erstellt: 24.01.05   #4
    die band running wild mein ich, die haben ein instrumental, des is voll geil am bass, net einfach. i habs so halb rausgehört, aber da liegt das problem - so halb...:(

    klar, war des erste was ich gemacht hab, tabseitn durchsuchen... aba findst nirgendwo was!!!:evil:
     
  5. joeythehippiegir

    joeythehippiegir Threadersteller Registrierter Benutzer

    Im Board seit:
    24.01.05
    Zuletzt hier:
    21.03.05
    Beiträge:
    3
    Zustimmungen:
    0
    Kekse:
    10
    Erstellt: 24.02.05   #5
    für die, die's interessiert, habs geschafft, des teil rauszuhören...
    is eigentlich a recht einfaches riff, die schwierigkeit dran is die geschwindigkeit...



    jede zeile is ein takt, sind demnach alles 1/16. tempo is 120

    1
    g------------------------------------------------------------------------l
    D-------12--14------12--14--11--12--12--11--14--12--12--14--11--12---l
    A---12----------12------------------------------------------------------l
    E------------------------------------------------------------------------l

    2
    g------------------------------------------------------------------------l
    D-------12--14------12--14--11--12--12--11--14--12--12--14--11--12---l
    A---12----------12------------------------------------------------------l
    E------------------------------------------------------------------------l

    3
    g------------------------------------------------------------------------l
    D-------15--17------15--17--14--15--15--14--17--15--15--17--14--15---l
    A---15----------15------------------------------------------------------l
    E------------------------------------------------------------------------l

    4
    g---------------------------------------------------------------------l
    D-------10--12------10--12--9--10--10--9--12--10--10--12--9--10---l
    A---10----------10---------------------------------------------------l
    E---------------------------------------------------------------------l

    Takt 1-4 wiederholen


    5
    g------------------------------------------------------------------------l
    D------------------------------------------------------------------------l
    A-------12--14------12--14--11--12--12--11--14--12--12--14--11--12---l
    E---12----------12-------------------------------------------------------l

    6
    g--------------------------------------------------------------------l
    D--------------------------------------------------------------------l
    A-------10--12------10--12--9--10--10--9--12--10--10--12--9--10---l
    E---10----------10---------------------------------------------------l

    7
    g-----------------------------------------------------------l
    D-----------------------------------------------------------l
    A------9--10------9--10--7--9--9--7--10--9--9--10--7--9---l
    E---8----------8--------------------------------------------l

    8
    g------------------------------------------------------l
    D------------------------------------------------------l
    A------6--8-----6--8--5--6--6--5--8--6--6--8--5--6---l
    E---6--------6-----------------------------------------l
     
Die Seite wird geladen...

mapping