Smoke on the water tab ...

von GuitarRa, 13.01.06.

  1. GuitarRa

    GuitarRa Registrierter Benutzer

    Im Board seit:
    03.07.05
    Zuletzt hier:
    12.01.08
    Beiträge:
    617
    Ort:
    Nienburg
    Zustimmungen:
    0
    Kekse:
    32
    Erstellt: 13.01.06   #1
  2. RAGMAN

    RAGMAN Mod Emeritus - Gitarren Ex-Moderator

    Im Board seit:
    19.08.03
    Zuletzt hier:
    31.08.13
    Beiträge:
    5.410
    Ort:
    zu Hause...
    Zustimmungen:
    12
    Kekse:
    2.538
    Erstellt: 13.01.06   #2
    Zahlen die übereinander stehen spielst Du gleichzeitig und Zahlen die hintereinander stehen nacheinander...
     
  3. klabautermann

    klabautermann Registrierter Benutzer

    Im Board seit:
    17.10.05
    Zuletzt hier:
    14.05.09
    Beiträge:
    1.043
    Ort:
    Berlin
    Zustimmungen:
    1
    Kekse:
    1.211
    Erstellt: 13.01.06   #3
    Also wenn du mit den Fingern spielst, kannst du die zwei Saiten mit Daumen und Zeigefinger gleichzeitig zupfen.

    Wenn du mit dem Pleck spielst, musst du die zwei Saiten hintereinander anschlagen, aber so schnell hintereinander dass es wie gleichzeitig klingt. Es kann sein dass du am Anfang Probleme damit hast, nicht gleich 3 oder 4 Saiten anzuschlagen, aber das kommt mit der Zeit.



    Zu dem Tab, ich würde es auf jeden Fall eher so spielen:

    e|----------------------------------------------|
    B|----------------------------------------------|
    G|----0--3--5---0--3--5-6-5---0--3--5--3--0|
    D|----0--3--5---0--3--5-6-5---0--3--5--3--0|
    A|----------------------------------------------|
    E|----------------------------------------------|

    Das ist von den Notenwerten das gleiche, aber es ist wesentlich einfacher.



    Wenn du die zweite Version spielst, dann solltest du sie so spielen:

    e|------------------------------------------|
    B|------------------------------------------|
    G|------------------------------------------|
    D|------------------------------------------|
    A|--2--5--7--2--5--8-7---2--5--7--5--2--|
    E|--0--3--5--0--3--6-5---0--3--5--3--0--|




    Wenn du die Kommentare und Votes anschaust, wirst du sehen dass dieser Tab ziemlich mieß ist.

    Der Ultimate-Guitar-User "altered" zum Schreiber des Tabs:


    Hoffe, ich konnte dir helfen.
     
  4. GuitarRa

    GuitarRa Threadersteller Registrierter Benutzer

    Im Board seit:
    03.07.05
    Zuletzt hier:
    12.01.08
    Beiträge:
    617
    Ort:
    Nienburg
    Zustimmungen:
    0
    Kekse:
    32
    Erstellt: 13.01.06   #4
    okay danke habt mir echt geholfen ;) :)
     
Die Seite wird geladen...

mapping