Stimmung bei Road Trippin

von Muradhin, 27.06.07.

  1. Muradhin

    Muradhin Registrierter Benutzer

    Im Board seit:
    18.04.07
    Zuletzt hier:
    2.05.14
    Beiträge:
    597
    Zustimmungen:
    1
    Kekse:
    699
    Erstellt: 27.06.07   #1
    Ich habe heute angefangen Road Trippin von den Red Hot Chili Peppers zu spielen und zwar nach diesen Tabs. Die sind zwar auch nicht hundertprozentig korrekt und Teile sind überhaupt nicht getabbt, aber im großen und ganzen waren es die besten die ich gefunden hab.

    Als ich dann angefangen hab mit der CD mitzuspielen, kam es mir so vor als ob mein bass verstimmt ist, denn es klang etwas schief. Ich hab also überrüft, ob der Bass verstimmt ist, aber es war alles in Ordnung. Da fiel mir ein das mir mal jemand gesagt hat, dass die Peppers ihre Instrumente öfters mal etwas verstimmt haben und deshalb wollte ich fragen ob das bei Road Trippin der Fall ist oder ob ich einfach nur ein miserables Gehör hab???:confused::o. (Würde ich nicht ausschließen :rolleyes:)

    Gruß Muradhin
     
  2. Boerx

    Boerx Helpful & Friendly User HFU

    Im Board seit:
    07.08.05
    Zuletzt hier:
    5.12.16
    Beiträge:
    3.174
    Ort:
    Karlsruhe
    Zustimmungen:
    383
    Kekse:
    14.712
    Erstellt: 27.06.07   #2
    Road Trippin wird in der Standardstimmung gespielt.

    Evtl. haben die auf deiner Aufnahme alles nen Halbton nach unten gestimmt oder die Tabs sind einfach nur falsch
     
  3. Tobbse

    Tobbse Registrierter Benutzer

    Im Board seit:
    10.12.05
    Zuletzt hier:
    5.03.12
    Beiträge:
    698
    Ort:
    Hemer
    Zustimmungen:
    2
    Kekse:
    597
    Erstellt: 27.06.07   #3
    road trippin ist standard mit einem a-bass, die tabs hier stimmen (kam mir zumindest bisher immer so vor^^)

    Code:
              Road Trippin'                                   
    
    
                                                               Red Hot Chili Peppers
    
    
    
         Q    Q    Q    Q       Q.     E  E  Q.        Q    Q    Q    Q     
    G||----------------------|----------------------|----------------------|
    D||-------2----2----2----|--5------4--L--2------|----------------------|
    A||----------------------|----------------------|-------3----3----3----|
    E||----------------------|----------------------|----------------------|
    
    
      Q    E  Q.     Q       Q    Q    Q    Q       Q.     E  E  Q.      
    ----------------------|----------------------|----------------------|
    ----------5------4----|-------2----2----2----|--5------4--L--2------|
    --2----2--------------|----------------------|----------------------|
    ----------------------|----------------------|----------------------|
    
    
      Q    Q    Q    Q       Q    E  Q.     Q       Q    Q    Q    Q     
    ----------------------|----------------------|----------------------|
    ----------------------|----------5------4----|-------2----2----2----|
    -------3----3----3----|--2----2--------------|----------------------|
    ----------------------|----------------------|----------------------|
    
    
      Q.     E  E  Q.        Q    Q    Q    Q       Q    E  Q.     Q     
    ----------------------|----------------------|----------------------|
    --5------4--L--2------|----------------------|----------5------4----|
    ----------------------|-------3----3----3----|--2----2--------------|
    ----------------------|----------------------|----------------------|
    
    
      Q    Q    Q    Q       Q.     E  E  Q.        Q    Q    Q    Q     
    ----------------------|----------------------|----------------------|
    -------2----2----2----|--5------4--L--2------|----------------------|
    ----------------------|----------------------|-------3----3----3----|
    ----------------------|----------------------|----------------------|
    
    
      Q    E  Q.     Q       Q    Q    Q    Q       Q.     E  E  Q.      
    ----------------------|----------------------|----------------------|
    ----------5------4----|-------2----2----2----|--5------4--L--2------|
    --2----2--------------|----------------------|----------------------|
    ----------------------|----------------------|----------------------|
    
    
      Q    Q    Q    Q       Q    E  Q.     Q       Q    Q    Q    Q     
    ----------------------|----------------------|----------------------|
    ----------------------|----------5------4----|-------2----2----2----|
    -------3----3----3----|--2----2--------------|----------------------|
    ----------------------|----------------------|----------------------|
    
    
      Q.     E  E  Q.        Q    Q    Q    Q       Q    E  Q.     Q     
    ----------------------|----------------------|----------------------|
    --5------4--L--2------|----------------------|----------5------4----|
    ----------------------|-------3----3----3----|--2----2--------------|
    ----------------------|----------------------|----------------------|
    
    
      Q    Q    Q    Q       Q.     E  E  Q.        Q    Q    Q    Q     
    ----------------------|----------------------|----------------------|
    -------2----2----2----|--5------4--L--2------|----------------------|
    ----------------------|----------------------|-------3----3----3----|
    ----------------------|----------------------|----------------------|
    
    
      Q    E  Q.     Q       Q    Q    Q    Q       Q.     E  E  Q.      
    ----------------------|----------------------|----------------------|
    ----------5------4----|-------2----2----2----|--5------4--L--2------|
    --2----2--------------|----------------------|----------------------|
    ----------------------|----------------------|----------------------|
    
    
      Q    Q    Q    Q       Q    E  Q.     Q       Q    Q    Q    Q     
    ----------------------|----------------------|----------------------|
    ----------------------|----------5------4----|-------2----2----2----|
    -------3----3----3----|--2----2--------------|----------------------|
    ----------------------|----------------------|----------------------|
    
    
      Q.     E  E  Q.        Q    Q    Q    Q       Q    E  Q.     Q     
    ----------------------|----------------------|----------------------|
    --5------4--L--2------|----------------------|----------5------4----|
    ----------------------|-------3----3----3----|--2----2--------------|
    ----------------------|----------------------|----------------------|
    
    
      Q    Q    Q    Q       Q.     E  E  Q.        Q    Q    Q    Q     
    ----------------------|----------------------|----------------------|
    -------2----2----2----|--5------4--L--2------|----------------------|
    ----------------------|----------------------|-------3----3----3----|
    ----------------------|----------------------|----------------------|
    
    
      Q    E  Q.     Q       Q    Q    Q    Q       Q.     E  E  Q.      
    ----------------------|----------------------|----------------------|
    ----------5------4----|-------2----2----2----|--5------4--L--2------|
    --2----2--------------|----------------------|----------------------|
    ----------------------|----------------------|----------------------|
    
    
      Q    Q    Q    Q       Q    E  Q.     Q       W                 
    ----------------------|----------------------|-------------------|
    ----------------------|----------5------4----|-------------------|
    -------3----3----3----|--2----2--------------|--0----------------|
    ----------------------|----------------------|-------------------|
    
    
      W                   W                   W                   W                 
    -------------------|-------------------|-------------------|-------------------|
    -------------------|-------------------|--0----------------|-------------------|
    --2----------------|--3----------------|-------------------|--0----------------|
    -------------------|-------------------|-------------------|-------------------|
    
    
      W                   W                   W                 
    -------------------|-------------------|-------------------|
    -------------------|-------------------|--0----------------|
    --2----------------|--3----------------|-------------------|
    -------------------|-------------------|-------------------|
    
    
      Q    Q    Q    Q       Q.     E  E  Q.        Q    Q    Q    Q     
    ----------------------|----------------------|----------------------|
    -------2----2----2----|--5------4--L--2------|----------------------|
    ----------------------|----------------------|-------3----3----3----|
    ----------------------|----------------------|----------------------|
    
    
      Q    E  Q.     Q       Q    Q    Q    Q       Q.     E  E  Q.      
    ----------------------|----------------------|----------------------|
    ----------5------4----|-------2----2----2----|--5------4--L--2------|
    --2----2--------------|----------------------|----------------------|
    ----------------------|----------------------|----------------------|
    
    
      Q    Q    Q    Q       Q    E  Q.     Q       Q    Q    Q    Q     
    ----------------------|----------------------|----------------------|
    ----------------------|----------5------4----|-------2----2----2----|
    -------3----3----3----|--2----2--------------|----------------------|
    ----------------------|----------------------|----------------------|
    
    
      Q.     E  E  Q.        Q    Q    Q    Q       Q    E  Q.     Q     
    ----------------------|----------------------|----------------------|
    --5------4--L--2------|----------------------|----------5------4----|
    ----------------------|-------3----3----3----|--2----2--------------|
    ----------------------|----------------------|----------------------|
    
    
      Q    Q    Q    Q       Q.     E  E  Q.        Q    Q    Q    Q     
    ----------------------|----------------------|----------------------|
    -------2----2----2----|--5------4--L--2------|----------------------|
    ----------------------|----------------------|-------3----3----3----|
    ----------------------|----------------------|----------------------|
    
    
      Q    E  Q.     Q       Q    Q    Q    Q       Q.     E  E  Q.      
    ----------------------|----------------------|----------------------|
    ----------5------4----|-------2----2----2----|--5------4--L--2------|
    --2----2--------------|----------------------|----------------------|
    ----------------------|----------------------|----------------------|
    
    
      Q    Q    Q    Q       Q    E  Q.     Q       Q    Q    Q    Q     
    ----------------------|----------------------|----------------------|
    ----------------------|----------5------4----|-------2----2----2----|
    -------3----3----3----|--2----2--------------|----------------------|
    ----------------------|----------------------|----------------------|
    
    
      Q.     E  E  Q.        Q    Q    Q    Q       Q    E  Q.     Q     
    ----------------------|----------------------|----------------------|
    --5------4--L--2------|----------------------|----------5------4----|
    ----------------------|-------3----3----3----|--2----2--------------|
    ----------------------|----------------------|----------------------|
    
    
      W                   W                   W                   W                 
    -------------------|-------------------|-------------------|-------------------|
    -------------------|-------------------|-------------------|--0----------------|
    --0----------------|--2----------------|--3----------------|-------------------|
    -------------------|-------------------|-------------------|-------------------|
    
    
      W                   W                   W                   W                 
    -------------------|-------------------|-------------------|-------------------|
    -------------------|-------------------|-------------------|--0----------------|
    --0----------------|--2----------------|--3----------------|-------------------|
    -------------------|-------------------|-------------------|-------------------|
    
    
      W                   W                   W                   W                 
    -------------------|-------------------|-------------------|-------------------|
    --2----------------|-------------------|-------------------|--0----------------|
    -------------------|--0----------------|--3----------------|-------------------|
    -------------------|-------------------|-------------------|-------------------|
    
    
      W                   W                   W                   W                 
    -------------------|-------------------|-------------------|-------------------|
    --2----------------|-------------------|-------------------|--4----------------|
    -------------------|--0----------------|--3----------------|-------------------|
    -------------------|-------------------|-------------------|-------------------|
    
    
      W                   W                   W                   W                 
    -------------------|-------------------|-------------------|-------------------|
    --2----------------|-------------------|-------------------|--0----------------|
    -------------------|--0----------------|--3----------------|-------------------|
    -------------------|-------------------|-------------------|-------------------|
    
    
      W                   W                   W                 
    -------------------|-------------------|-------------------|
    --2----------------|-------------------|-------------------|
    -------------------|--0----------------|--3----------------|
    -------------------|-------------------|-------------------|
    
    
      E  E  E  E  E  Q    E     E  E  E  E  E  E  Q       E  Q    E  Q    Q     
    -------------------------|-------------------------|-----2-----------------|
    --4-----4-----4----------|--4-----4--------4-------|-------------4---------|
    -------------------------|-------------------------|-----------------------|
    -------------------------|-------------------------|-----------------------|
    
    
      Q    Q    E  E  Q       Q    Q    Q    Q       Q.     E  E  Q.      
    -----------------------|----------------------|----------------------|
    --1---------1-----2----|-------2----2----2----|--5------4--L--2------|
    -----------------------|----------------------|----------------------|
    -----------------------|----------------------|----------------------|
    
    
      Q    Q    Q    Q       Q    E  Q.     Q       Q    Q    Q    Q     
    ----------------------|----------------------|----------------------|
    ----------------------|----------5------4----|-------2----2----2----|
    -------3----3----3----|--2----2--------------|----------------------|
    ----------------------|----------------------|----------------------|
    
    
      Q.     E  E  Q.        Q    Q    Q    Q       Q    E  Q.     Q     
    ----------------------|----------------------|----------------------|
    --5------4--L--2------|----------------------|----------5------4----|
    ----------------------|-------3----3----3----|--2----2--------------|
    ----------------------|----------------------|----------------------|
    
    
      Q    Q    Q    Q       Q.     E  E  Q.        Q    Q    Q    Q     
    ----------------------|----------------------|----------------------|
    -------2----2----2----|--5------4--L--2------|----------------------|
    ----------------------|----------------------|-------3----3----3----|
    ----------------------|----------------------|----------------------|
    
    
      Q    E  Q.     Q       Q    Q    Q    Q       Q.     E  E  Q.      
    ----------------------|----------------------|----------------------|
    ----------5------4----|-------2----2----2----|--5------4--L--2------|
    --2----2--------------|----------------------|----------------------|
    ----------------------|----------------------|----------------------|
    
    
      Q    Q    Q    Q       Q    E  Q.     Q       Q    Q    Q    Q     
    ----------------------|----------------------|----------------------|
    ----------------------|----------5------4----|-------2----2----2----|
    -------3----3----3----|--2----2--------------|----------------------|
    ----------------------|----------------------|----------------------|
    
    
      Q.     E  E  Q.        Q    Q    Q    Q       Q    E  Q.     Q     
    ----------------------|----------------------|----------------------|
    --5------4--L--2------|----------------------|----------5------4----|
    ----------------------|-------3----3----3----|--2----2--------------|
    ----------------------|----------------------|----------------------|
    
    
      Q    Q    Q    Q       Q.     E  E  Q.        Q    Q    Q    Q     
    ----------------------|----------------------|----------------------|
    -------2----2----2----|--5------4--L--2------|----------------------|
    ----------------------|----------------------|-------3----3----3----|
    ----------------------|----------------------|----------------------|
    
    
      Q    E  Q.     Q       Q    Q    Q    Q       Q.     E  E  Q.      
    ----------------------|----------------------|----------------------|
    ----------5------4----|-------2----2----2----|--5------4--L--2------|
    --2----2--------------|----------------------|----------------------|
    ----------------------|----------------------|----------------------|
    
    
      Q    Q    Q    Q       Q    E  Q.     Q       W                 
    ----------------------|----------------------|-------------------|
    ----------------------|----------5------4----|-------------------|
    -------3----3----3----|--2----2--------------|--0----------------|
    ----------------------|----------------------|-------------------|
    
    
      W                   W                   W                   W                 
    -------------------|-------------------|-------------------|-------------------|
    -------------------|-------------------|--0----------------|-------------------|
    --2----------------|--3----------------|-------------------|--0----------------|
    -------------------|-------------------|-------------------|-------------------|
    
    
      W                   W                   W                   W                 
    -------------------|-------------------|-------------------|-------------------|
    -------------------|-------------------|--0----------------|-------------------|
    --2----------------|--3----------------|-------------------|--0----------------|
    -------------------|-------------------|-------------------|-------------------|
    
    
      W                   W                   W                   W                 
    -------------------|-------------------|-------------------|-------------------|
    -------------------|-------------------|--0----------------|-------------------|
    --2----------------|--3----------------|-------------------|--0----------------|
    -------------------|-------------------|-------------------|-------------------|
    
    
      W                   W                   W                   W                 
    -------------------|-------------------|-------------------|-------------------|
    -------------------|-------------------|--0----------------|-------------------|
    --2----------------|--3----------------|-------------------|--0----------------|
    -------------------|-------------------|-------------------|-------------------|
    
    
      W                   W                   W                   W                 
    -------------------|-------------------|-------------------|-------------------|
    -------------------|-------------------|--0----------------|-------------------|
    --2----------------|--3----------------|-------------------|--0----------------|
    -------------------|-------------------|-------------------|-------------------|
    
    
      W                   W                   W                 
    -------------------|-------------------|-------------------|
    -------------------|-------------------|--0----------------|
    --2----------------|--3----------------|-------------------|
    -------------------|-------------------|-------------------|
    
    
      Q.     E  Q    Q       E  Q.     Q.     E     Q    Q    E  Q.      
    ----------------------|----------------------|----------------------|
    --2------2--L----2----|--L--2------2------2--|--L----2----L--2------|
    ----------------------|----------------------|----------------------|
    ----------------------|----------------------|----------------------|
    
    
      Q.     E  Q    Q       E  Q.     Q.     E     Q    Q    E  Q.      
    ----------------------|----------------------|----------------------|
    --2------2--L----2----|--L--2------2------2--|--L----2----L--2------|
    ----------------------|----------------------|----------------------|
    ----------------------|----------------------|----------------------|
    
    
      Q.     E  Q    Q       E  Q.     Q.     E     Q    Q    E  Q.      
    ----------------------|----------------------|----------------------|
    --2------2--L----2----|--L--2------2------2--|--L----2----L--2------|
    ----------------------|----------------------|----------------------|
    ----------------------|----------------------|----------------------|
    
    
      Q.     E  Q    Q       E  Q.     Q.     E     Q    Q    E  Q.      
    ----------------------|----------------------|----------------------|
    --2------2--L----2----|--L--2------2------2--|--L----2----L--2------|
    ----------------------|----------------------|----------------------|
    ----------------------|----------------------|----------------------|
    
    
      W                  
    -------------------||
    --2----------------||
    -------------------||
    -------------------||
     
  4. Pfungstaedter

    Pfungstaedter Registrierter Benutzer

    Im Board seit:
    05.01.06
    Zuletzt hier:
    27.01.13
    Beiträge:
    163
    Ort:
    Alsbach-Hähnlein
    Zustimmungen:
    0
    Kekse:
    170
    Erstellt: 30.06.07   #4
    Kannst du mir die Buchtabenbedeutng bitte erklären? :rolleyes:
    Vll. weiß ich auch was sie bedeuten nur es ist gerade spät und ich war bis eben unterwegs :D

    greetz Flo
     
  5. nookie

    nookie Registrierter Benutzer

    Im Board seit:
    25.07.05
    Zuletzt hier:
    1.01.16
    Beiträge:
    541
    Ort:
    Saarland
    Zustimmungen:
    4
    Kekse:
    368
    Erstellt: 30.06.07   #5
    Q = Viertel
    E = Achtel

    An manchen stellen halt noch punktiert zu sehen an dem .
     
  6. Muradhin

    Muradhin Threadersteller Registrierter Benutzer

    Im Board seit:
    18.04.07
    Zuletzt hier:
    2.05.14
    Beiträge:
    597
    Zustimmungen:
    1
    Kekse:
    699
    Erstellt: 30.06.07   #6
    Also, dass was bei deinen Tabs während dem Cello Solo steht kommt mir nicht richtig vor, er spielt deutlich mehr als immer nur diesen einen Ton.

    Leider kann ich nicht sagen, was er stattdessen spielt :o, (oder hab ich mich schon wieder vertan:confused:)
     
  7. Schmuddelfutz

    Schmuddelfutz Registrierter Benutzer

    Im Board seit:
    24.12.05
    Zuletzt hier:
    24.11.12
    Beiträge:
    792
    Ort:
    Hamburg
    Zustimmungen:
    2
    Kekse:
    478
    Erstellt: 02.07.07   #7
    Ich kenn den Verse-Part so:

    G:|---------------5-------------------------5----------
    D:|---2-2--5-4----------5-4-----2-2--5-4--------------
    A:|-------------3---3-2-------------------3---3-2------
    E:|-0-------------------------0--------------------3-2-

    Nach dem Chorus (der genauso ist wie der Verse):
    --> Sind jeweils ganze Noten!

    G:|-------------------------------
    D:|-------------0----------------0
    A:|--0--2---3-------0---2---3-----
    E:|--------------------------------

    Dann wieder Verse und Chorus und nach dem zweiten Chorus:


    G:|--------------------------------------------------------------
    D:|--2----------0---2----------4----2------------0---2-----------
    A:|-----0---3-----------0---3-----------0---3------------0--3----
    E:|----------------------------------------------------------------

    Wie im Chorus sind das alles ganze Noten!

    Direkt danach:


    G:|-----------------------2----------------------
    D:|--4-4--4-----4-4--4-------4-----1----1---2--
    A:|--------------------------------------------
    E:|---------------------------------------------

    Und dann wieder Verse + Chorus + After Chorus :)

    So hab ich das gelernt und so klingt es nicht falsch finde ich ;)
     
  8. Grönlandhai

    Grönlandhai Registrierter Benutzer

    Im Board seit:
    20.08.06
    Zuletzt hier:
    29.11.14
    Beiträge:
    107
    Ort:
    Bückeburg, Deutschland
    Zustimmungen:
    3
    Kekse:
    41
    Erstellt: 03.07.07   #8
    Stimmung ist auch so 'ne Sache... versuch mal, alte Van HAlen mitzuspielen - bei manchen Liedern klingt's in E zu hoch und in Eb-Stimmung zu tief... was daran liegt, dass die TYpen ihre Instrumente zwar aufeinander gestimmt haben, aber sich 'nen Dreck um das 440Hz-A geschert haben.
    Könnte bei den Peppers ähnlich sein...
     
  9. Tobbse

    Tobbse Registrierter Benutzer

    Im Board seit:
    10.12.05
    Zuletzt hier:
    5.03.12
    Beiträge:
    698
    Ort:
    Hemer
    Zustimmungen:
    2
    Kekse:
    597
    Erstellt: 03.07.07   #9
    könnte sein, aber da sowohl meine tabs spielbar sind als auch schmuddelfutz' tabs (die ich übrigens für vollständiger halte ;) XD ) und das so dann in E A D G mit A=440Hz spielbar sind, glaub ich nicht, dass es bei den peppers so ist.. zumal ich seeeeeehr viele lieder der peppers spiele^^
     
Die Seite wird geladen...

mapping