Suche bestimmte Tablature

von nike_esp, 05.05.04.

  1. nike_esp

    nike_esp Registrierter Benutzer

    Im Board seit:
    30.04.04
    Zuletzt hier:
    29.04.13
    Beiträge:
    3.054
    Zustimmungen:
    1
    Kekse:
    414
    Erstellt: 05.05.04   #1
    Hi,

    also es wird zwar komisch klingen, aber ich suche die Tabs zur deutschen nationalhymne. Ich habe bis jetzt noch nichts gutes gefunden. Meine Bandmembers und ich wollten daraus eine Punkversion machen, ... ;)

    wäre sehr dankbar, wenn ihr mir helfen würdet ... mit einem link zur tablature ...

    danke ... :D
     
  2. Insane

    Insane Registrierter Benutzer

    Im Board seit:
    19.08.03
    Zuletzt hier:
    6.12.16
    Beiträge:
    1.598
    Ort:
    Esens
    Zustimmungen:
    43
    Kekse:
    1.659
    Erstellt: 05.05.04   #2
    ich glaub nich, dass du da so schnell tbs findest aber hörs doch einfach raus...
     
  3. nike_esp

    nike_esp Threadersteller Registrierter Benutzer

    Im Board seit:
    30.04.04
    Zuletzt hier:
    29.04.13
    Beiträge:
    3.054
    Zustimmungen:
    1
    Kekse:
    414
    Erstellt: 05.05.04   #3
    hab hier ein konzept:

    Vers:

    e:----------------------------------------------------------------
    B:--------------------1-0------------0----------------------------
    G:-----0--2-0-------------2-0---0---------0--------2-0------2---
    D:-2-3--3-----3-0-2-----------3---2-----3---3-0--------3-0------

    A:------------------------------------------------2---------------
    E:----------------------------------------------------------------
    ___________________________________________________________

    e:-------------------------------------------------------------
    B:-0------------0-0-------------------------------------------

    G:---2-0-0-2-2------------------------------------------------
    D:-------------------------------------------------------------
    A:-------------------------------------------------------------
    E:-------------------------------------------------------------
    ___________________________________________________________
    chorus:

    e:--0----------------------------------------------------------
    B:----3-3-1-0-1-0-0------------0-1---------------------------

    G:-------------------2-0---0-2------2------0------------------
    D:-----------------------3-------------3-2---3-2--------------
    A:------------------------------------------------------------
    E:-----------------------------------------------------------

    ... kann sein, dass ich ein paar schreibfehler gemacht hab. Aber testet es mal aus (rythmus muss man selber heraushören) und sagt mir was ihr denkt/bzw. was ich ändern soll.

    ... :D mein erstes Lied herausgehört :D ...

    testet es bitte mal ....
     
  4. nike_esp

    nike_esp Threadersteller Registrierter Benutzer

    Im Board seit:
    30.04.04
    Zuletzt hier:
    29.04.13
    Beiträge:
    3.054
    Zustimmungen:
    1
    Kekse:
    414
    Erstellt: 05.05.04   #4
    ist irgendwie eine komische Lücke drin ... :confused:
     
  5. jens2901

    jens2901 Registrierter Benutzer

    Im Board seit:
    18.08.03
    Zuletzt hier:
    2.06.14
    Beiträge:
    1.167
    Zustimmungen:
    0
    Kekse:
    171
    Erstellt: 05.05.04   #5
    hör es doch raus...meine güte...
     
  6. nike_esp

    nike_esp Threadersteller Registrierter Benutzer

    Im Board seit:
    30.04.04
    Zuletzt hier:
    29.04.13
    Beiträge:
    3.054
    Zustimmungen:
    1
    Kekse:
    414
    Erstellt: 05.05.04   #6
    hab ich doch gemacht ... !

    es soll nur mal getestet werden, falls ich irgendwo ne falsche note gemacht hab ...

    meiner meinung nach hört es sich gut an ...
     
Die Seite wird geladen...

mapping