Suche Classic Tab: Die Moldau

von Red_Devil7, 13.10.04.

  1. Red_Devil7

    Red_Devil7 Registrierter Benutzer

    Im Board seit:
    05.03.04
    Zuletzt hier:
    12.11.12
    Beiträge:
    101
    Zustimmungen:
    0
    Kekse:
    10
    Erstellt: 13.10.04   #1
    Hallo Leute
    Ich suche dringend Tabs zu dem Classic Stüch "Die Moldau" von Smetana!
    Weiß jemand wo ich die bekomme?

    Gruss Red_Devil7
     
  2. Fastel

    Fastel Helpful & Friendly User HFU

    Im Board seit:
    11.04.04
    Zuletzt hier:
    6.12.16
    Beiträge:
    5.926
    Ort:
    Tranquility Base
    Zustimmungen:
    565
    Kekse:
    18.025
    Erstellt: 16.10.04   #2
    so spiel ich es immer:
    ------------------------------------------------------------------------------
    ------------10-12-12-12-13-13-13-12-|-12-10-10-10-----10-------------------
    ---9-11-12-------------------------------------------12-----12-12-11-9-11-9
    -9----------------------------------------------------------------------------
    ------------------------------------------------------------------------------
    ------------------------------------------------------------------------------

    2. teil
    ----------------------------------------------|------------------------7---------
    --------------------10-12-13-15-10-13-13-12-|----------------7-8-10---7-10-10-8
    -----------9-11-12----------------------------|-----------7-9-------------------
    ----10-12-------------------------------------|---7-9-10------------------------
    -10-------------------------------------------|-7--------------------------------
    ----------------------------------------------|----------------------------------

    am ende:
    ----------7-|
    -/7-----8---|
    -----9------|
    ------------|
    ------------|
    ------------|
     
  3. Red_Devil7

    Red_Devil7 Threadersteller Registrierter Benutzer

    Im Board seit:
    05.03.04
    Zuletzt hier:
    12.11.12
    Beiträge:
    101
    Zustimmungen:
    0
    Kekse:
    10
    Erstellt: 28.10.04   #3
    Super Vielen vielen Dank!!! ist wirklich cool.
     
  4. Pappnase

    Pappnase Registrierter Benutzer

    Im Board seit:
    26.08.04
    Zuletzt hier:
    25.07.06
    Beiträge:
    155
    Ort:
    Dormagen
    Zustimmungen:
    0
    Kekse:
    31
    Erstellt: 01.12.05   #4
    exzellent! danke für die tabs!
     
  5. angiemerkel

    angiemerkel Registrierter Benutzer

    Im Board seit:
    08.02.05
    Zuletzt hier:
    19.03.09
    Beiträge:
    307
    Ort:
    Freising / Bayern
    Zustimmungen:
    0
    Kekse:
    14
    Erstellt: 02.12.05   #5
    Ist das die Klingelton-Version für die geistig verarmte Pisa-Jugend? Das Stück dauert etwas länger als die paar Takte da oben.
     
  6. Fastel

    Fastel Helpful & Friendly User HFU

    Im Board seit:
    11.04.04
    Zuletzt hier:
    6.12.16
    Beiträge:
    5.926
    Ort:
    Tranquility Base
    Zustimmungen:
    565
    Kekse:
    18.025
    Erstellt: 02.12.05   #6
    na dann lass mal sehen!
     
  7. kleinershredder

    kleinershredder Registrierter Benutzer

    Im Board seit:
    23.02.04
    Zuletzt hier:
    20.06.11
    Beiträge:
    2.569
    Ort:
    Kierspe
    Zustimmungen:
    8
    Kekse:
    698
    Erstellt: 02.12.05   #7
    Leute kauft euch die Partitur, und lernt noten, wenn nicht, kauft euch die Partitur und gebt die Noten in guitarpro ein, das macht euc dann tabs.
    Wobei das erste natürlich besser ist, Klassik klappt nicht mit tabs.
     
  8. VaddaCobain

    VaddaCobain Registrierter Benutzer

    Im Board seit:
    04.12.05
    Zuletzt hier:
    15.03.07
    Beiträge:
    74
    Ort:
    Neuss
    Zustimmungen:
    0
    Kekse:
    176
    Erstellt: 04.12.05   #8
    Also wenn du Guitar Pro hast, könnte ich dir das Stück im gp-format zukommen lassen, ist allerdings nicht die originalversion, sondern nur was gecovertes :rolleyes: Trotzdem schön zu spielen...!
     
Die Seite wird geladen...

mapping