[Suche] Fingersatz beim Canon Rock

von h4x0r, 16.06.08.

  1. h4x0r

    h4x0r Registrierter Benutzer

    Im Board seit:
    16.07.07
    Zuletzt hier:
    15.09.15
    Beiträge:
    2.081
    Ort:
    Siegen
    Zustimmungen:
    48
    Kekse:
    3.801
    Erstellt: 16.06.08   #1
    Hey ihr Mitgitarristen. Ich hoffe, dass es das Thema nicht schon gibt, hab weder per SuFu noch Google was gefunden.
    Ich bin übe zeitlich das Sweep-Picking und hab mir dafür unter anderem den ersten Sweep aus Jerry-C´s Canon Rock ausgesucht, der ja wie folgt geht:

    Code:
    Spur 1
                         |----3---|                    
         S  S  S S  S S  E    E   E   S  S  S  S   E   
    E||---------------9-12S--17--12-------------------|
    B||------------10----------------14---------------|
    G||----------9----------------------14------------|
    D||-------11---------------------------14---------|
    A||--7-12---------------------------------12S-16--|
    E||-----------------------------------------------|
    
    
                   |-----5-----|               
       S  S  S  S  S  S  S  S  S  Q     Q      
    --21-17-------17-12----------------------||
    --------17----------14-------------------||
    -----------18----------14----------------||
    --------------------------14-------------||
    -----------------------------12~---------||
    -----------------------------------------||
    
    Jetzt hab ich aber dummerweise im 2ten Takt das Problem, dass ich den Fingersatz nicht hinkrieg und deswegen irgendwie nen Finger zu wenig hab :D, wär echt nett, wenn mir jemand helfen könnte.
    Gruß und danke im Vorraus,
    Jan
     
Die Seite wird geladen...

mapping