Suche Leichtes liedchen für A-Gitarre

von nikron, 31.03.07.

  1. nikron

    nikron Gesperrter Benutzer

    Im Board seit:
    10.09.03
    Zuletzt hier:
    15.06.07
    Beiträge:
    71
    Ort:
    Erfurt
    Zustimmungen:
    0
    Kekse:
    10
    Erstellt: 31.03.07   #1
    huhu, also folgendes hab hier ne a gitarre und habauch nen buch wo ich so am üben bin, aber ich will mal zwischendurch irgend nen leichtes liedchen einstudieren ;) soll nix großes sein irgend was nettes einfaches wäre fein, mit wieder erkennungs wert!
    ich hab hier die letzten 10 foren seiten mal durchgeschaut aber nicht so das wahre gefunden =)

    aber ihr wisst sicher was =)

    mfg
     
  2. Martuen

    Martuen Registrierter Benutzer

    Im Board seit:
    28.01.06
    Zuletzt hier:
    16.05.11
    Beiträge:
    38
    Zustimmungen:
    0
    Kekse:
    62
    Erstellt: 31.03.07   #2
    Extreme - More than words O,o?
     
  3. CMatuschek

    CMatuschek Registrierter Benutzer

    Im Board seit:
    01.05.05
    Zuletzt hier:
    28.11.09
    Beiträge:
    876
    Ort:
    Wesel
    Zustimmungen:
    0
    Kekse:
    228
    Erstellt: 31.03.07   #3
    Naja, es gibt das die Akkord-Begleitungs-Lieder. Die sind aber sofort langweilig, find ich zumidnest.
    Z.b. House of the Rising Sun.... viel mehr kenn ich da nicht, weil ich die halt nich so pralle finde.
    Sind halt die klassiker unter den A-Gitarre-Anfänger-Lieder.

    Greenday - Time of Your Life find ich super, und das ist auch nicht so schwer. Du greifst die Akkorde (G C9 D) und zupfst dabei immer die gleichen Saiten.

    Greenday - Wake me up when September Ends is auch gut. Garnich schwer und klingt super.

    Dann würd ich mir mal Jack Johnson angucken, ein paar Lieder von den sind auch ganz easy.

    Kennste den Film "School of Rock"? Dann kennste bestimmt auch den Schauspieler Jack Black (google.de). Der hat ne Band namens Tenacious D. Die machen so Rock-Lieder die Chliché-Artig hoch 3 sind. Das Lied "Tribute" von den ist ganz cool mit Akustik zuspielen.

    Dann natürlich Led Zeppelin mit "Stairway to Heaven" (Von diesem Lied haben Tenacious D in Tribute viel viel übernommen).

    Dann gibts da noch die Ärzte! Westerland natürlich. Dann haben die noch ne ganze "Akustik-CD" (unplugged), namens Rock'n'Roll Realschule. Da sind eingentlich alle Lieder cool nachzuspielen. Hurra würd ich mir vornehmen, is easy.


    So, jetzt haste ersmal was zu tun :)
     
  4. mYa

    mYa Registrierter Benutzer

    Im Board seit:
    21.02.07
    Zuletzt hier:
    1.12.16
    Beiträge:
    901
    Ort:
    Nordwestschweiz
    Zustimmungen:
    12
    Kekse:
    3.444
    Erstellt: 31.03.07   #4
    Also wenn du auch Fingerpicking veranstaltest, hab ich von meinem Lehrer mal so nen Limp Bizkit - Behind Blue Eyes Melodie + Begleitung-Verwurschtelung bekommen, klingt echt net übel. :D
    Ist ne Bearbeitung von B. Scherler. (steht zumindest über den Noten :great: )

    Hab des hier auch mal von mir gespielt gepastet...
    hier

    also wenn du was in die Richtung machen willst. =)

    Ich spiel auch zur Zeit bei meinem Lehrer Music, auch so ne MischMaschVersion, is aber einiges schwerer als des von Limp Bizkit...

    edit: wenn ich grad meine Aufnahme anhöre: hab ich schlecht gespielt :D is aber sonst nett arrangiert!
     
  5. Exsilence

    Exsilence Registrierter Benutzer

    Im Board seit:
    04.03.07
    Zuletzt hier:
    20.11.07
    Beiträge:
    67
    Zustimmungen:
    0
    Kekse:
    10
    Erstellt: 01.04.07   #5
    Wenn Du in der Gaming-scene vertreten bist,
    kennst auch sicher "Jan Hegenberg" oder?

    Der spielte als er noch unbekannt war super tolle Lieder die Du auch auf deiner A-Gitarre nachspielen kannst.
    Seine Album Tracks sind mehr E-Gitarre spezialisiert.

    Die älteren Lieder kannst Dir runterladen auf www.janhegenberg.de
    Das sind aber auch die bekanntesten von ihn.
    "GPF-suckt", "Holly", "Warcraftsong","Cheater an Die Wand" kann ich dir ans Herz legen ;)

    Gruß
    Exsilence
     
  6. nikron

    nikron Threadersteller Gesperrter Benutzer

    Im Board seit:
    10.09.03
    Zuletzt hier:
    15.06.07
    Beiträge:
    71
    Ort:
    Erfurt
    Zustimmungen:
    0
    Kekse:
    10
    Erstellt: 01.04.07   #6
    danke euch hab ich ja was ;D
     
  7. p0wl

    p0wl Registrierter Benutzer

    Im Board seit:
    20.10.06
    Beiträge:
    508
    Ort:
    Stuttgart/Tübingen
    Zustimmungen:
    0
    Kekse:
    346
    Erstellt: 01.04.07   #7
    kann mir bei Greenday - Time of Your Life vielleicht jemand kurz helfen? ich hab da extreme probleme den rhythmus rauszuhören, da es ja 2 gitarren sind. Ich muss mich dann ja wohl für eine von beiden entscheiden, also entweder zupfen oder die akkorde spielen oder versteh ich da was falsch? Ich versuche nach folgendem tab zu spielen:

    INTRO:
    _____________________________________________

    E|------------------------------|
    B|------------------------------|
    G|------0-------------------0---| The F*** up
    D|----0---0---------------0---0-|
    A|------------------------------|
    E|-3-------------------3--------|
    ______________________________________________

    E|--------------------------------------------------------|
    B|------3-------------3-------------3-------------3-------|
    G|----0---0---0-----0---0---0-----0---0---0-----2---2---2-| X 2
    D|----------0-------------0-------------2----0--------0---|
    A|-----------------------------3--------------------------|
    E|-3-------------3----------------------------------------|


    VERSE:

    E|--------------------------------------------------------|
    B|------3-------------3-------------3-------------3-------|
    G|----0---0---0-----0---0---0-----0---0---0-----2---2---2-|
    D|----------0-------------0-------------2----0--------0---|
    A|-----------------------------3--------------------------|
    E|-3-------------3----------------------------------------|

    Another turning point a fork stuck in the road

    E|--------------------------------------------------------|
    B|------3-------------3-------------3-------------3-------|
    G|----0---0---0-----0---0---0-----0---0---0-----2---2---2-|
    D|----------0-------------0-------------2----0--------0---|
    A|-----------------------------3--------------------------|
    E|-3-------------3----------------------------------------|
    Time grabs you by the wrist directs you where to go

    E|--------------------------------------------------------|
    B|------0-------------3-------------3-------------3-------|
    G|----0---0---0-----2---2---2-----0---0---0-----0---0---0-|
    D|----------2----0--------0-------------2-------------0---|
    A|-2---------------------------3--------------------------|
    E|-------------------------------------------3------------|
    So make the best of this task and dont ask why

    E|--------------------------------------------------------|
    B|------0-------------3-------------3-------------3-------|
    G|----0---0---0-----2---2---2-----0---0---0-----0---0---0-|
    D|----------2----0--------0-------------2-------------0---|
    A|-2---------------------------3--------------------------|
    E|-------------------------------------------3------------|
    It's not a question but a lesson learned in time



    CHORUS:

    E|--------------------------------------------------------|
    B|------0-------------3-------------0-------------3-------|
    G|----0---0---0-----0---0---0-----0---0---0-----0---0---0-|
    D|----------2-------------0-------------2-------------0---|
    A|-2---------------------------2--------------------------|
    E|---------------3---------------------------3------------|
    It's something unpredictable but in the end is right

    E|--------------------------------------------------------|
    B|------0-------------3-------------3---------------------|
    G|----0---0---0-----2---2---2-----0---0---0---------------|
    D|----------2----0--------0-------------0-----------------|
    A|-2------------------------------------------------------|
    E|-----------------------------3--------------------------|
    I hope you had the time of your life

    __________________________________________________________________
    Next is the stumming section. Its pretty clear in the video that these are correct.

    Chords used: G9 C9 D Em C

    Listen to track to get the rythem.
    __________________________________________________________________

    G9 C9 D
    E|----3------3-----2-----|
    B|----3------3-----3-----|
    G|----0------0-----2-----| X 2
    D|----0------2-----0-----|
    A|----2------3-----x-----|
    E|----3------x-----x-----|

    (No singing)

    G9 C9 D
    E|----3-----------------------3--------------------2----|
    B|----3-----------------------3--------------------3----|
    G|----0-----------------------0--------------------2----|
    D|----0-----------------------2--------------------0----|
    A|----2-----------------------3--------------------x----|
    E|----3-----------------------x--------------------x----|
    So take the photographs and still frames in your mind

    G9 C9 D
    E|----3-----------------------3--------------------2----|
    B|----3-----------------------3--------------------3----|
    G|----0-----------------------0--------------------2----|
    D|----0-----------------------2--------------------0----|
    A|----2-----------------------3--------------------x----|
    E|----3-----------------------x--------------------x----|
    Hang it on the shelf with good health and good time

    Em D C G9
    E|----0---------2-------------0----------3-------|
    B|----0---------3-------------1----------3-------|
    G|----0---------2-------------0----------0-------|
    D|----2---------0-------------2----------0-------|
    A|----2---------x-------------3----------2-------|
    E|----0---------x-------------x----------3-------|
    Tatoos and memories and dead skin on trial

    Em D C G9
    E|----0---------2-------------0-------------3-------|
    B|----0---------3-------------1-------------3-------|
    G|----0---------2-------------0-------------0-------|
    D|----2---------0-------------2-------------0-------|
    A|----2---------x-------------3-------------2-------|
    E|----0---------x-------------x-------------3-------|
    For what its worth, it was worth all the while

    Em G9 Em G9
    E|----0------------3-------------0------------3-------|
    B|----0------------3-------------0------------3-------|
    G|----0------------0-------------0------------0-------|
    D|----2------------0-------------2------------0-------|
    A|----2------------2-------------2------------2-------|
    E|----0------------3-------------0------------3-------|
    Its something unpredictable but in the end is right

    Em D G9 C9 D
    E|----0-----------------2-------------|----3----3----2-----|
    B|----0-----------------3-------------|----3----3----3-----|
    G|----0-----------------2-------------|----0----0----2-----| X 4
    D|----2-----------------0-------------|----0----2----0-----|
    A|----2-----------------x-------------|----2----3----x-----|
    E|----0-----------------x-------------|----3----x----x-----|
    I hope you have the time of your life (No singing)


    Em D C G9
    E|----0---------2-------------0----------3-------|
    B|----0---------3-------------1----------3-------|
    G|----0---------2-------------0----------0-------|
    D|----2---------0-------------2----------0-------|
    A|----2---------x-------------3----------2-------|
    E|----0---------x-------------x----------3-------|
    (No singing)


    Em D C G9
    E|----0---------2-------------0----------3-------|
    B|----0---------3-------------1----------3-------|
    G|----0---------2-------------0----------0-------|
    D|----2---------0-------------2----------0-------|
    A|----2---------x-------------3----------2-------|
    E|----0---------x-------------x----------3-------|
    (No singing)

    Em G9 Em G9
    E|----0------------3-------------0------------3-------|
    B|----0------------3-------------0------------3-------|
    G|----0------------0-------------0------------0-------|
    D|----2------------0-------------2------------0-------|
    A|----2------------2-------------2------------2-------|
    E|----0------------3-------------0------------3-------|
    Its something unpredictable but in the end is right

    Em D
    E|----0-----------------2----|
    B|----0-----------------3----|
    G|----0-----------------2----|
    D|----2-----------------0----|
    A|----2-----------------x----|
    E|----0-----------------x----|

    I hope you had the time of your life

    G9 C9 D G9 C9 D
    E|----3------3-----2-----3-----3-----2----|
    B|----3------3-----3-----3-----3-----3----|
    G|----0------0-----2-----0-----0-----2----|
    D|----0------2-----0-----0-----2-----0----|
    A|----2------3-----x-----2-----3-----x----|
    E|----3------x-----x-----3-----x-----x----| <<< Slow down and get quieter on last chord (D)
    (No singing)

    Outro:

    E|--------------------------------------------------------|
    B|------0-------------3-------------0-------------3-------|
    G|----0---0---0-----0---0---0-----0---0---0-----0---0---0-|
    D|----------2-------------0-------------2-------------0---|
    A|-2---------------------------2--------------------------|
    E|---------------3---------------------------3------------|
    It's something unpredictable but in the end is right

    E|--------------------------------------------------------|
    B|------0-------------3-------------3---------------------|
    G|----0---0---0-----2---2---2-----0---0---0---------------|
    D|----------2----0--------0-------------0-----------------|
    A|-2------------------------------------------------------|
    E|-----------------------------3--------------------------|
    I hope you had the time of your life

    E|-------------------------------------------|
    B|------3--------------3-------------3-------|
    G|----0---0---0------0---0---0-----2---2---2-|
    D|----------0--------------2----0--------0---|
    A|----------------3--------------------------|
    E|-3-----------------------------------------|

    E|------------------------------------------------------3-|
    B|------3------------3------------3------------3--------3-|
    G|----0---0---0----0---0---0----0---0---0----2---2-2----0-|
    D|----------0------------0------------2----0---------0--0-|
    A|----------------------------3-------------------------2-|
    E|-3-------------3--------------------------------------3-|
     
Die Seite wird geladen...

mapping