Suche schönes Solo!!!!!!!^^

von Underoath-16, 01.05.05.

  1. Underoath-16

    Underoath-16 Registrierter Benutzer

    Im Board seit:
    26.04.05
    Zuletzt hier:
    4.07.05
    Beiträge:
    66
    Zustimmungen:
    0
    Kekse:
    10
    Erstellt: 01.05.05   #1
    Also ich suche ein schönes solo im bereich rock oder punk.^^
    Aber sollte nich zu einfach sein, sollte mit Stairway To Heaven
    vergleich bar sein, also vom Schwierigkeitsgrad her.^^
    Man sollte schon mit dem solo ein paar Mädchen beeindrucken können.:D
    Okay, die folgenden schönen solos kan ich schon, ich liste sie mal auf damit ihr sie mir nich empfiehlt.^^

    -Nothing else matters(Metallica)
    -Stairway to Heaven (Led Zeppelin)
    - Hell Song (Sum41)
    -I Dont Know (Lost Prophets) Geilstes solo das es gibt, i swear^^
    -Bouncing off the walls again( Sugarcult)
    -When I'm Gone (3 Doors Down)
    -Longing ( X Japan)^^
     
  2. kleinershredder

    kleinershredder Registrierter Benutzer

    Im Board seit:
    23.02.04
    Zuletzt hier:
    20.06.11
    Beiträge:
    2.569
    Ort:
    Kierspe
    Zustimmungen:
    8
    Kekse:
    698
    Erstellt: 01.05.05   #2
    Probier mal das von Blood brothers. (Iron Maiden)
     
  3. masterrecorder

    masterrecorder Registrierter Benutzer

    Im Board seit:
    22.04.05
    Zuletzt hier:
    11.01.12
    Beiträge:
    61
    Zustimmungen:
    0
    Kekse:
    10
    Erstellt: 01.05.05   #3
    guns n' roses - november rain (1st & 2nd guitar solo)
     
  4. Fastel

    Fastel Helpful & Friendly User HFU

    Im Board seit:
    11.04.04
    Zuletzt hier:
    29.11.16
    Beiträge:
    5.925
    Ort:
    Tranquility Base
    Zustimmungen:
    565
    Kekse:
    18.025
    Erstellt: 01.05.05   #4
    fade to black intro und das intro solo von One (beides metallica wie du dir denken kannst)

    außerdem find ich das solo von Mountains (manowar) recht cool ...
     
  5. Arvir

    Arvir Registrierter Benutzer

    Im Board seit:
    02.10.04
    Zuletzt hier:
    11.05.14
    Beiträge:
    1.161
    Zustimmungen:
    4
    Kekse:
    3.583
    Erstellt: 02.05.05   #5

    Ist aber deutlich schwerer als Stairway to Heaven, aber wirklich sehr schön.
     
  6. Dr.Network

    Dr.Network Registrierter Benutzer

    Im Board seit:
    22.04.05
    Zuletzt hier:
    10.03.08
    Beiträge:
    167
    Ort:
    Zustimmungen:
    0
    Kekse:
    42
    Erstellt: 02.05.05   #6
    jo das denk ich auch :screwy: ich kann nur en bisschen den anfang von dem letzten:great:
     
  7. Dr.Network

    Dr.Network Registrierter Benutzer

    Im Board seit:
    22.04.05
    Zuletzt hier:
    10.03.08
    Beiträge:
    167
    Ort:
    Zustimmungen:
    0
    Kekse:
    42
    Erstellt: 02.05.05   #7
    hmm ich möcht auch die leutchen etwas beeindrukcen aber mich stört wenn ich nur das solo kann und ´wenn das lied anfängt kann ich gar nichts kann mir einer dabei helfen auch tolle lieder zu finden die einfach aber schön sind:great:
     
  8. Dr.Network

    Dr.Network Registrierter Benutzer

    Im Board seit:
    22.04.05
    Zuletzt hier:
    10.03.08
    Beiträge:
    167
    Ort:
    Zustimmungen:
    0
    Kekse:
    42
    Erstellt: 02.05.05   #8
    wie spielt man denn diese stairway kannst du mir das sagen bit´te keine tabs mit denne hab ich probleme:evil:
     
  9. Arvir

    Arvir Registrierter Benutzer

    Im Board seit:
    02.10.04
    Zuletzt hier:
    11.05.14
    Beiträge:
    1.161
    Zustimmungen:
    4
    Kekse:
    3.583
    Erstellt: 02.05.05   #9
    Naja ohen Tabs wird es ein bischen schwer ein Solo zu erklären ;) Außerdem sind Tabs selbst erklärend.
    Die oberste Zeile ist die hohe E Saite . dann eben nach unten. Wenn da zb. ein 5 auf der obersten Zeile steht legst du den Finger auf der E Saite in den 5ten Bund.
     
  10. blinkie

    blinkie Registrierter Benutzer

    Im Board seit:
    27.04.05
    Zuletzt hier:
    25.03.13
    Beiträge:
    893
    Ort:
    Freudenstadt
    Zustimmungen:
    5
    Kekse:
    709
    Erstellt: 02.05.05   #10
    das solo bei intoo deep von sum41 find ich cool.
     
  11. Dr.Network

    Dr.Network Registrierter Benutzer

    Im Board seit:
    22.04.05
    Zuletzt hier:
    10.03.08
    Beiträge:
    167
    Ort:
    Zustimmungen:
    0
    Kekse:
    42
    Erstellt: 02.05.05   #11
    hmm ich hab schon eine Version in Noten ;) sehr schönes Lied...Wer könnt mir denn noch tolle Leider vorschlagen vielleicht wo man vieles mit Akkorden spielt :rolleyes: :great:
     
  12. Plux

    Plux Registrierter Benutzer

    Im Board seit:
    01.11.04
    Zuletzt hier:
    1.11.10
    Beiträge:
    226
    Zustimmungen:
    0
    Kekse:
    62
    Erstellt: 02.05.05   #12
    ich würde mal CHILD IN TIME von DEEP Purple probieren. Am besten noch im Zusammenspiel mit jemandem an der Orgel! Aber an Schnelligkeit ist es schon gehobener Anspruch...

    Oder Samba Pa Ti von Santana.. auch seeehr schön und schwierig wenn man bisher nur den Rockstil spielt...
     
  13. Dr.Network

    Dr.Network Registrierter Benutzer

    Im Board seit:
    22.04.05
    Zuletzt hier:
    10.03.08
    Beiträge:
    167
    Ort:
    Zustimmungen:
    0
    Kekse:
    42
    Erstellt: 03.05.05   #13
    Du bist wohl verrückt :screwy: :eek: Ich ah mir das nageschaut ich versth unter leichten solos was anderes....;) krank hmmm zu stairway:

    kannst mir doch die tabs schicken weil irgendwie hab ich probleme die hier zu fassen:

    Code:
     	 Am		  E5+/G#		 C/G		 D/F#		 
    E||-----------5--7--------7--|--8--------8--2--------2--|
    B||--------5--------5--------|-----5-----------3--------|
    G||-----5--------------5-----|--------5-----------2-----|
    D||--7-----------6-----------|--5-----------4-----------|
    A||--------------------------|--------------------------|
    E||--------------------------|--------------------------|
    
      FM7					   G/BAm								E+5/G#	   
    --0-------------0--------|------------------------|--------------7--------7--|
    -----1-----1-------1-----|--0--1--1---------------|-----------5-----5--------|
    --------2-------------2--|--0--2--2------2--------|--------5-----------5-----|
    --3----------------------|------------------------|-----7--------6-----------|
    -------------------------|--2--0--0------0/-8--7--|--0-----------------------|
    -------------------------|------------------------|--------------------------|
    
      C/G		 D/F#		   FM7					   G/BAm				 
    --8--------8--2--------2--|--0-------------0--------|-----------------------|
    -----5-----------3--------|-----1-----1-------1-----|--0--1--1--------------|
    --------5-----------2-----|--------2-------------2--|--0--2--2--------------|
    --5-----------4-----------|--3----------------------|-----------------------|
    --------------------------|-------------------------|--2--0--0--------0--2--|
    --------------------------|-------------------------|-----------------------|
    
      C		   D			  FM7		 Am		   
    -----------0--2--------2--|--0--------0--------------|
    -----------------3--------|-----1--------0-----------|
    --------0-----------2-----|--------2--------2--------|
    -----2--------0-----------|--3-----------------------|
    --3-----------------------|--------------0-----0--2--|
    --------------------------|--------------------------|
    
      C		   G			  D						C		   D			
    --------------3--------3--|--3p2-2--2--------------|--------------2--------2--|
    --1--------1-----0--------|------3--3--------------|-----------1-----3--------|
    -----0--------------0-----|------2--2--------------|--------0-----------2-----|
    --------2-----------------|--0---0--0--------------|-----2--------0-----------|
    --3-----------------------|------------------0--2--|--3-----------------------|
    --------------3-----------|------------------------|--------------------------|
    
      FM7		 Am			 C		   D			  FM7				 
    --0--------0--------------|-----------------------2--|--0--0--0------------|
    -----1--------0-----------|-----------1--------3-----|--1--1--1------------|
    --------2--------2--------|--------0--------2--------|--2--2--2------------|
    --3-----------------------|-----2--------0-----------|--3--3--3------------|
    --------------0-----0--2--|--3-----------------------|---------------------|
    --------------------------|--------------------------|---------------------|
    
      Am		  E5+/G#		 C/G		 D/F#		   FM7					 
    -----------5--7--------7--|--8--------8--2--------2--|--0-------------0--------|
    --------5--------5--------|-----5-----------3--------|-----1-----1-------1-----|
    -----5--------------5-----|--------5-----------2-----|--------2-------------2--|
    --7-----------6-----------|--5-----------4-----------|--3----------------------|
    --------------------------|--------------------------|-------------------------|
    --------------------------|--------------------------|-------------------------|
    
      G/BAm							 E5+/G#		 C/G		 D/F#		 
    ---------------------|-----------5--7--------7--|--8--------8--2--------2--|
    --0--1--1------------|--------5--------5--------|-----5-----------3--------|
    --0--2--2------------|-----5--------------5-----|--------5-----------2-----|
    ---------------------|--7-----------6-----------|--5-----------4-----------|
    --2--0--0------------|--------------------------|--------------------------|
    ---------------------|--------------------------|--------------------------|
    
      FM7					   G/BAm				   C		   D			
    --0-------------0--------|-----------------------|--------------2--------2--|
    -----1-----1-------1-----|--0--1--1--------------|-----------1-----3--------|
    --------2-------------2--|--0--2--2--------------|--------0-----------2-----|
    --3----------------------|-----------------------|-----2--------0-----------|
    -------------------------|--2--0--0--------0--2--|--3-----------------------|
    -------------------------|-----------------------|--------------------------|
    
      FM7		   Am			 C		   G			
    --0--------0----------------|--------------3--------3--|
    -----1-------1--0-----------|--1--------1-----0--------|
    --------2----------2-----0--|-----0--------------0-----|
    --3-------------------------|--------2-----------------|
    ----------------0-----0--2--|--3-----------------------|
    ----------------------------|--------------3-----------| 
    also die ersten paar takte
     
Die Seite wird geladen...

mapping