Suche Tab zu Californication ( live at VMA´s 2000)

von Bird Man, 12.03.05.

  1. Bird Man

    Bird Man Registrierter Benutzer

    Im Board seit:
    12.12.04
    Zuletzt hier:
    17.12.12
    Beiträge:
    101
    Zustimmungen:
    0
    Kekse:
    10
    Erstellt: 12.03.05   #1
    Hallo

    Ich suche das Tab zu Californication von den Peppers , wie es bei dem MTV Video Music Awards 2000 gespielt wurde

    Die VErsion ist kürzer und hat nach dem normalen Solo noch so eine Art Bass solo , welches sich irre geil anhört:great: :great: , jedoch sich niergendwo Tabs für finden lassen

    Wäre dankbar für Hilfe
     
  2. niethitwo

    niethitwo Helpful & Friendly User HFU

    Im Board seit:
    17.10.03
    Zuletzt hier:
    17.12.12
    Beiträge:
    6.269
    Zustimmungen:
    8
    Kekse:
    1.976
    Erstellt: 12.03.05   #2
    hi!

    bin gitarrist und rhcp fan
    <-- unschwer zu erkennen..

    Tabs gibts, ha sie als Guitar Pro??

    ahjst du da programm?? dann gibt es 2 tabs unter

    http://www.mysongbook.com

    wenn nicht, kannst du dir die demo unter

    http://www.guitar-pro.com/

    downloaden..

    ansosnten kann ichs auf wunsch hier als ASCI2 Tab reinstellen...würd halt kurz dauern, bis ich die stelle gefunden hab...:o

    EDIT: here it is, meinst du das: :confused:


    Californication


    Flea - Bass






    --------------------------|------------------|--14----------------------------|
    --------------------------|------------------|--------------18--------16------|
    --3--5--3--------2--3--5--|------------------|--------------------------------|
    -----------5--3-----------|------------------|--14--14--14--14--14--------14--|



    --------------14------------------|--14----------------------------|
    ----------------------------------|--------------18--------16------|
    ----------------------------------|--------------------------------|
    --10--10--10--10--10--10--10--10--|--14--14--14--14--14--------14--|



    --------------14------------------|-------------------7----|
    ----------------------------------|--------9-------7-------|
    ----------------------------------|-----9-------5----------|
    --10--10--10--10--10--10--10--10--|--7---------------------|



    ------------------------|--14----------------------------|
    --------7---------------|--------------18--------16------|
    -----7-------------7----|--------------------------------|
    --5----------0--7-------|--14--14--14--14--14--------14--|



    --------------14------------------|--14----------------------------|
    ----------------------------------|--------------18--------16------|
    ----------------------------------|--------------------------------|
    --10--10--10--10--10--10--10--10--|--14--14--14--14--14--------14--|



    --------------14------------------|
    ----------------------------------|
    ----------------------------------|
    --10--10--10--10--10--10--10--10--|
     
  3. Yojo-Bad-Mojo

    Yojo-Bad-Mojo Helpful & Friendly User HFU

    Im Board seit:
    23.08.03
    Zuletzt hier:
    2.02.15
    Beiträge:
    488
    Ort:
    Rödermark
    Zustimmungen:
    1
    Kekse:
    295
    Erstellt: 12.03.05   #3
    Hey Kollege ich bin mir recht sicher, dass ich weiß was du meinst ;)

    Dieses kleine Solo hab ich mir mal ansatzweise rausgehört und seitdem spiele ich da immer so ne leicht abgewandelte Version von.

    Das genau rauszuhören anhand des Videos find ich nämlich etwas schwer bei der Soundqualität und auf Tabs geb ich nicht allzu viel ....

    Meine Abwandlung mp3 ~256kb

    Wenn dir das auch gefällt kann ich immerhin das tabben :p
     
  4. Bird Man

    Bird Man Threadersteller Registrierter Benutzer

    Im Board seit:
    12.12.04
    Zuletzt hier:
    17.12.12
    Beiträge:
    101
    Zustimmungen:
    0
    Kekse:
    10
    Erstellt: 13.03.05   #4
    Wäre nett wenn du nen Tab online stellen könntest :)

    Gefällt mir sehr gut :great:
     
  5. Yojo-Bad-Mojo

    Yojo-Bad-Mojo Helpful & Friendly User HFU

    Im Board seit:
    23.08.03
    Zuletzt hier:
    2.02.15
    Beiträge:
    488
    Ort:
    Rödermark
    Zustimmungen:
    1
    Kekse:
    295
    Erstellt: 13.03.05   #5
    OK, du hast es nicht anders gewollt :D

    Das hat mich selber nochmal gefuchst, dass ich das nie richtig rausgehört habe, also habe ich das soeben nachgeholt :D

    "SO" ist's richtig !!!

    jedenfalls klingt es imho zu 99% so wie auf dem Video :p bei 35 noten also ca.~ eine drittel Note abweichung

    und in Tabs sähe das ungefähr so aus :

    G|------------------------------------------------------------17-16----16-17-19^^-------22-21--19-21-19------------------------------|
    D|-7-77-7h9-99-9h10-1010-10h12-1212-12h14--1414-14h15---------19--------------------------------------22-21-----22-21-19----------|
    A|-----------------------------------------------------------------------------------------------------------------19----------19-20^^--|
    E|----------------------------------------------------------------------------------------------------------------------------------------|

    EDIT:
    Ach ja btw meine vorige Version wäre dann das hier.

    G|-----------------------------------------------------------------------------------19-17---19-17-16------------------------------------|
    D|-7-77-7h9-99-9h10-1010-10h12-1212-12h14--1414-14h15--15-15--19-19-19-17-19--------------------17--17-14---14-12-14-12---7------|
    A|----------------------------------------------------------------------------------------------------------------------------------0------|
    E|-----------------------------------------------------------------------------------------------------------------------------------------|

    Edit2: @magge
    Jetzt ist die Mahlzeit schon vorgekaut, da muss ich ja nich extra noch den Löffel zum Mund führen und den Kiefer hochklappen, huh ? :D
     
  6. magge

    magge Registrierter Benutzer

    Im Board seit:
    19.08.03
    Zuletzt hier:
    29.11.16
    Beiträge:
    1.597
    Ort:
    Wiesbaden
    Zustimmungen:
    0
    Kekse:
    372
    Erstellt: 13.03.05   #6
    hängs vielleicht lieber gleich als .txt datei an oder so ... dann muss man das ned rauskopieren :) aber naja...is ja kein großer aufwand
     
  7. Bird Man

    Bird Man Threadersteller Registrierter Benutzer

    Im Board seit:
    12.12.04
    Zuletzt hier:
    17.12.12
    Beiträge:
    101
    Zustimmungen:
    0
    Kekse:
    10
    Erstellt: 13.03.05   #7
    Vielen Dank !!!

    Das ist es was ich gesucht habe :great: :great: :great:
     
Die Seite wird geladen...

mapping