Suche Toccata Tabs (von The Toy Dolls)

von Jeff666, 18.11.05.

  1. Jeff666

    Jeff666 Registrierter Benutzer

    Im Board seit:
    11.04.05
    Zuletzt hier:
    23.11.16
    Beiträge:
    339
    Ort:
    Hamburg
    Zustimmungen:
    7
    Kekse:
    18
    Erstellt: 18.11.05   #1
    Hi!

    Ich suche dringend die Tabs zu Toccata in Dm von The Toy Dolls.
    Ich weiß, dass das orginal Lied von Bach ist. Habe mir auch einige Noten schon im Internet zusammen gesucht. Aber The Toy Dolls spielen es ja irgendwie anders. Und da ich noch nicht so gut im Raushören bin, schaff ich das bei dem Lied auch nicht.
    Habt ihr vielleicht passene Noten/Tabs zu der "Version"? Wäre voll nett :great:


    Danke im vorraus!!

    mfg Jeff
     
  2. RAGMAN

    RAGMAN Mod Emeritus - Gitarren Ex-Moderator

    Im Board seit:
    19.08.03
    Zuletzt hier:
    31.08.13
    Beiträge:
    5.410
    Ort:
    zu Hause...
    Zustimmungen:
    12
    Kekse:
    2.538
    Erstellt: 18.11.05   #2
    Du bist hier in der Plauderecke...

    Diese Frage gehört eigentlich in Tabs & Spieltechniken

    hier ist schonmal ein Stück:
    Code:
    E :-----------------------------------------------------------------------
    B :-----------------------------------------------------------------------
    G :2-1-2----------------------2-1-2------------------2-1-2----------------
    D :--------5-3-2---------------------2--3--------------------5-3-2--------
    A :--------------5-4---5-------------------4--5--------------------5-4---5
    E :-----------------------------------------------------------------------
    
    E :---------------------------------------------------------------------|
    B :---------------------------------------------------------------------|
    G :------------------------------------------------0-2-3-0-2-3-0-2-3-0-2|
    D :------------------------2-3-5-2-3-5-2-3-5-2-3------------------------|
    A :4-5-7-4-5-7-4-5-7-4-5------------------------------------------------|
    E :---------------------------------------------------------------------|
     
  3. RAGMAN

    RAGMAN Mod Emeritus - Gitarren Ex-Moderator

    Im Board seit:
    19.08.03
    Zuletzt hier:
    31.08.13
    Beiträge:
    5.410
    Ort:
    zu Hause...
    Zustimmungen:
    12
    Kekse:
    2.538
    Erstellt: 18.11.05   #3
    OK, dann halt so:
    Code:
    Intro (0:01)                   
    G|-----------------------|-------------------|
    D|--7-5-7---5------------|--7-5-7------------|
    A|------------8-7-5-4-5--|----------7-8-4-5--|
    E|-----------------------|-------------------|
    
           
        
    G|-------------------------------------------|
    D|----------5---------***********************|
    A|------------8-7-5-4-5----------/17---------|
    E|--5-3-5------------------------------------|
    
    
    
    Little Break Thing....? (0:24)
    G|-------------------------|----------------------------|
    D|-------------------------|----------------------------|
    A|--4-5-7-4-5-7-4-5-7-4-5--|--7-8-10-7-8-10-7-8-10-7-8--|
    E|-------------------------|----------------------------|
    
    
    
    G|-------------------------|
    D|--5-7-8-5-7-8-5-7-8-5-7--| 
    A|-------------------------|  x2     
    E|-------------------------|
    
    
    
    Solo/Verse Lead In (0:36)
    G|--------------12-12--------10-10-------9-9-------7-7--|
    D|------------------------------------------------------|
    A|--12\10-10-10--------8-8-8-------7-7-7-----5-5-5------|
    E|------------------------------------------------------|
    
    
    
    G|--------5-5------------------------------------------|
    D|------------------8-8-------7-7-------5-5-------3-3--|
    A|--3-3-3----------------------------------------------|
    E|------------6-6-6-----5-5-5-----3-3-3-----1-1-1------|
    
    
    
    G|-------------|------------6-9-9/12-15-------|
    D|-------------|--------5-8-------------------|
    A|--------7----|--5-4-7--------------------5--|
    E|--0-0-0---0--|------------------------------|
    
    
    
    Verse (0:54)
    G|----------------------------------------|
    D|----------------------------------------|
    A|--12/5-555-555-555-555-555-555-555-555--|  etc...
    E|----------------------------------------|
    
    
          
    G|----------------------------------------|
    D|----------------------------------------|  etc...
    A|--0\5-555-555-555-555-555-555-555-555---|
    E|----------------------------------------|
    
    
    
    Chorus (1:08)  
    G|----------------------------------------------------------|
    D|--0/5-5-8-8-8-7---------5------------2-2-2-0--------------|
    A|----------------8---7-7---8---0-\3-3---------0-0-001-000--|
    E|----------------------------------------------------------|
    
    ^^ Sometimes it slides down from the 7th on the D string, ^^
       instead of up from the open D.
    
    
    Play the verse again, then go straight into...
    
    
    Bridge (1:28)
    G|-----------------------2-3-0-2-----------------------|
    D|-5-2-3-0-5-2-3-0-2---0---------3-5-2-3-0-5-2-3---0-0-|
    A|-------------------3---------------------------3-----|
    E|-----------------------------------------------------|
    
    
    
    Bridge Pt.2 (1:35)
    G|---7---7---7---7-|---5---5---5---5|---3---3---3---3-|
    D|-----------------|----------------|-----------------|
    A|-5---5---5---5---|-3---3---3---3--|-1---1---1---1---|
    E|-----------------|----------------|-----------------|
    
    
         (1st ending)                   (2nd ending)
    G|----2---2---2---2--|            G|------------|
    D|-------------------|            D|------------|
    A|--0---0---0---0----|            A|--0-0-0-0---|
    E|-------------------|            E|------------|
    
    
    Play the verse one more time, then the chorus...
    
    
    Outro (2:18)
    G|---------------------------------|
    D|---------------------------------|
    A|-17/5-555-55-88-7-----------8-7--| x2
    E|-------------------5-555-55------|
    
    
    
    G|--------------------------------------------------|
    D|----------4-5-6-7------------------****-----------|
    A|--5-6-7-8---------1-2-3-4-5-6-7-8--5/17---17-17\--|
    E|--------------------------------------------------|
     
  4. Jeff666

    Jeff666 Threadersteller Registrierter Benutzer

    Im Board seit:
    11.04.05
    Zuletzt hier:
    23.11.16
    Beiträge:
    339
    Ort:
    Hamburg
    Zustimmungen:
    7
    Kekse:
    18
    Erstellt: 18.11.05   #4
    Hi!

    Sorry das ich falsch gepostet hab. Bin kaum im Forum...

    Danke, diesen Teil hatte ich auch gefunden im Netz, aber weiter weiß keiner? danach wirds ja erst intressant :D

    Hum? Mit den Bass noten kann ich ja nix anfangen...Weil der Bass ja im Verse was eigenes Spielt...
     
  5. RAGMAN

    RAGMAN Mod Emeritus - Gitarren Ex-Moderator

    Im Board seit:
    19.08.03
    Zuletzt hier:
    31.08.13
    Beiträge:
    5.410
    Ort:
    zu Hause...
    Zustimmungen:
    12
    Kekse:
    2.538
    Erstellt: 18.11.05   #5
    warum ist der Thread denn jetzt wieder im Gitarrenbereich Tabs & Spieltechniken:confused:
     
Die Seite wird geladen...

mapping