Sweeping

von Maggisus, 06.02.07.

  1. Maggisus

    Maggisus Registrierter Benutzer

    Im Board seit:
    30.08.06
    Zuletzt hier:
    4.11.16
    Beiträge:
    764
    Zustimmungen:
    0
    Kekse:
    82
    Erstellt: 06.02.07   #1
    Kennt jemand gute Scalen oder Tabs zu Sweeping. Ich bräuchte was, was nicht zu schwer ist aber doch genial klingt. Am besten übers Griffbrett verteilt. Könnt Ihr mir vielleicht noch dazu passend ein Buch oder irgendwelche Internet Seiten empfehlen?
    Das wär super :great:

    Mfg
     
  2. unfassbaaar

    unfassbaaar Registrierter Benutzer

    Im Board seit:
    08.12.05
    Zuletzt hier:
    23.07.15
    Beiträge:
    339
    Zustimmungen:
    0
    Kekse:
    1.460
    Erstellt: 06.02.07   #2
    -17-12----------12---15-12---------12-
    -------13----13-------------13---13----
    ----------14-------------------14------

    -15-12-------12---15-13--------13--
    -------12--12---- -------13---13-----
    ---------12------------------14--------




    -----------------12-17-12---------------------------------------------------
    --------------13----------13------------------------------15----------------
    -----------14----------------14---------------------13-16----16-13----------
    --------14----------------------14------------12-15----------------15-12----
    --12-15----------------------------15---11-14----------------------------14-
    ----------------------------------------------------------------------------


    -------------------------------------------------------12-15-12-------------
    --------------------15------------------------------14----------14----------
    --------------13-16----16-13---------------------14----------------14-------
    --------12-15----------------15-12------------14----------------------14----
    --11-14----------------------------14---12-16----------------------------16-
    ----------------------------------------------------------------------------


    -----------------13-17-13------------------------------------12----------------
    --------------15----------15------------------------------13----13-------------
    -----------14----------------14------------------------14----------14----------
    --------15----------------------15------------------14----------------14-------
    --12-17----------------------------17------12-14-15----------------------15-12-
    ----------------------------------------12-------------------------------------


    --------------------14---------------------------12----12-16-12-16-20-19-16----
    -----------------16----16---------------------12----12-------------------------
    -----------14-16----------16-14------------13----------------------------------
    -----13-16----------------------16-13---14-------------------------------------
    --14---------------------------------------------------------------------------
    -------------------------------------------------------------------------------


    --17-12-----------------
    --------13--------------
    -----------14-----------
    --------------14--------
    -----------------15-12--
    ------------------------

    hier hastn paar beispiele ;)

    Gruß
     
  3. unfassbaaar

    unfassbaaar Registrierter Benutzer

    Im Board seit:
    08.12.05
    Zuletzt hier:
    23.07.15
    Beiträge:
    339
    Zustimmungen:
    0
    Kekse:
    1.460
    Erstellt: 06.02.07   #3
    Kannst auch mal in folgende GP-DAtei reinschauen ( besonders ab Takt 39)

    Kann ein Mod vllt beide Beiträge zusammenfassen? hab das irgendwie nich geschafft...
     

    Anhänge:

  4. Maggisus

    Maggisus Threadersteller Registrierter Benutzer

    Im Board seit:
    30.08.06
    Zuletzt hier:
    4.11.16
    Beiträge:
    764
    Zustimmungen:
    0
    Kekse:
    82
    Erstellt: 06.02.07   #4
    Dankeschön jetz werd ich erst mal ne Runde spieln ^^
     
  5. kammschott

    kammschott Registrierter Benutzer

    Im Board seit:
    27.01.07
    Zuletzt hier:
    10.12.16
    Beiträge:
    593
    Ort:
    Hamburg
    Zustimmungen:
    58
    Kekse:
    571
  6. marcel bern

    marcel bern Registrierter Benutzer

    Im Board seit:
    11.09.05
    Zuletzt hier:
    14.06.07
    Beiträge:
    87
    Zustimmungen:
    0
    Kekse:
    10
    Erstellt: 06.02.07   #6
    das sweeping von unfassbarr hört sich voll geil an
     
  7. Maxi

    Maxi Registrierter Benutzer

    Im Board seit:
    04.09.05
    Zuletzt hier:
    10.12.16
    Beiträge:
    3.849
    Zustimmungen:
    350
    Kekse:
    5.099
    Erstellt: 06.02.07   #7
    warum ist das nicht schon längst geschlossen... ein wort in die verdammte sufu und mann hat 1000threats... ich hab mich immer gewundert warum sich die mods und so aufregen das manche zum 20ten mal nach sweeping fragen... aber naja nachdem ich jetzt au scho 20mal dazu antworten gegeben hab und irgendwelche licks aufgeschrieben hab weiß ich warum... wie auch immer...

    schauh dir die licks von MAB- Speed kills vieleicht mal an... die sind zwar schnel... aber das kann man ja langsamer spielen!

    Gruß Maxi
     
  8. riddler

    riddler Registrierter Benutzer

    Im Board seit:
    14.11.05
    Zuletzt hier:
    28.03.15
    Beiträge:
    3.266
    Ort:
    BaWü
    Zustimmungen:
    4
    Kekse:
    6.132
    Erstellt: 06.02.07   #8
    hab hiern paar sachen, sind glaub alle ausm board.
     
  9. EightballZ

    EightballZ Registrierter Benutzer

    Im Board seit:
    03.11.04
    Zuletzt hier:
    7.09.11
    Beiträge:
    197
    Zustimmungen:
    3
    Kekse:
    37
    Erstellt: 09.02.07   #9
    sag mal wie macht ihr dass bei den sweeps wenn man auf einer seite im 4.bund greift und auf der darunter liegenden saite ebenfalls?....ich komm damit gar nich klar...

    weil wenn ich den selben finger nehme klingts unsauber...und mit nem andern finger komm ich gar nich erst hin...is viel zu frikelig
     
  10. kammschott

    kammschott Registrierter Benutzer

    Im Board seit:
    27.01.07
    Zuletzt hier:
    10.12.16
    Beiträge:
    593
    Ort:
    Hamburg
    Zustimmungen:
    58
    Kekse:
    571
    Erstellt: 09.02.07   #10
    das passwort heißt: üben :)

    du meinst sicher den ringfinger, den man ab und zu mal über 2 oder 3 saiten "abknicken" muss oder? z.b.:

    --------------------7----------12
    ---------------9------------------
    -----------9----------------------
    --------9-------------------------
    ----7-----------------------------
    -----------------------------------
     
  11. Bob5478

    Bob5478 Registrierter Benutzer

    Im Board seit:
    27.02.05
    Zuletzt hier:
    13.08.13
    Beiträge:
    407
    Zustimmungen:
    2
    Kekse:
    40
    Erstellt: 09.02.07   #11
    Du musst den Finger "abrollen" .Sobald du einen Ton angeschlagen hast glei weiter zum nächsten.Du darfst den vorigen Ton dann nicht mehr gedrückt halten.Dann klingts sauber :)
     
  12. Quirrel

    Quirrel Registrierter Benutzer

    Im Board seit:
    05.09.06
    Zuletzt hier:
    27.02.10
    Beiträge:
    434
    Zustimmungen:
    0
    Kekse:
    146
    Erstellt: 10.02.07   #12

    Amen

    So long
    Quirrel :D
     
Die Seite wird geladen...

mapping