Symptoms of the Universe - Tab

von SicraiN, 04.10.05.

  1. SicraiN

    SicraiN Registrierter Benutzer

    Im Board seit:
    30.05.05
    Zuletzt hier:
    30.03.08
    Beiträge:
    286
    Ort:
    Siegen (NRW)
    Zustimmungen:
    1
    Kekse:
    61
    Erstellt: 04.10.05   #1
    Kann mir vielleicht jemand weiterhelfen? Ich suche die noten zu diesem lied.
    Ursprünglich Ozzy Osbourne später gecovert von Sepultura. Die Noten sind eigentlich ziemlich einfach aber ich kann sie nicht mit dem bloßen gehör erkennen. :confused:
    aus mysongbook habe ich schon nachgesehen da gibt es sie nicht.
     
  2. RAGMAN

    RAGMAN Mod Emeritus - Gitarren Ex-Moderator

    Im Board seit:
    19.08.03
    Zuletzt hier:
    31.08.13
    Beiträge:
    5.410
    Ort:
    zu Hause...
    Zustimmungen:
    12
    Kekse:
    2.538
    Erstellt: 05.10.05   #2
    SEPULTURA
    Symptom of the Universe originally recorded by
    Ozzy Osbourne of Black Sabbath.



    Code:
    Main Riff...      Hold Note    ect, ect..
    
    e:---------------------------------------------------------------------------|
    B:---------------------------------------------------------------------------|
    G:----------------------------------------------------4----------------------|
    D:----------------------3----3\-----------------------2--3----3\-------------|
    A:----------------------1----1\--------------------------1----1\-------------|
    E:-0--0--0--0--0--0--0-----------0--0--0--0--0--0--0-------------------------|      
    
    Bridge                                             Back to Main riff...
    
    e:---------------------------------------------------------------------------|
    B:---------------------------------------------------------------------------|
    G:----2------------------------2---------------------------------------------|
    D:----0------3-------2---------0-----3--------2------------------------------|
    A:-----------1-------0---------------1--------0------------------------------|
    E:-------------------------------------------------------17\3----------------|   
    
    Interlude (The rocking Part palyed very fast)             Play at least 4 times, then on to Bridge, and back to Main Riff.
    
    e:---------------------------------------------------------------------------|
    B:---------------------------------------------------------------------------|
    G:---------------------------------------------------------------------------|
    D:---4-5-2-4---2----------P-P-H-P-P-H--2-------------------------------------|
    A:-----------5---4-5-2---5-4-2-5-4-2-4-0-------------------------------------|
    E:-2-------------------------------------------------------------------------|
    
    Interlude 2   (Same as the First interlude, then onto the following...        Ect, ect..
    
    e:---------------------------------------------------------------------------|
    B:---------------------------------------------------------------------------|
    G:-------------------------------------------------------H-P-H-H------2--P---|
    D:---------------------------------------------------H--1-3-1-2-4-2-2---4-2--|
    A:--2--2-2-2-2--2--2-2-2-2--2--2-2-2-2--2--2-2-2-2--2-4---------------------2|
    E:---------------------------------------------------------------------------|
    Lyrics:
    Electrifying enemy is drowning in his tears
    All I have to give you is a love that never dies
    The symptom of the universe is written in your eyes

    Yeah

    Mother mooch is calling me back to her silver womb
    Father of creation takes me from my stolen tomb
    Seventh night the unicorn is waiting in the skies
    A symptom of the universe, a love that never dies

    Yeah

    Take my hand, my child of love come step inside my tears
    Swim the magic ocean I've been crying all these years
    When our love will ride away into eternal skies
    A symptom of the universe, a love that never dies

    Yeah

    Oh my child of love's creation, come and step inside my dreams
    In your eyes I see no sadness, you are all that loving means
    Take my hand and we'll go riding through the sunshine from above
    We'll find happiness together in the summer skies of love
     
  3. SicraiN

    SicraiN Threadersteller Registrierter Benutzer

    Im Board seit:
    30.05.05
    Zuletzt hier:
    30.03.08
    Beiträge:
    286
    Ort:
    Siegen (NRW)
    Zustimmungen:
    1
    Kekse:
    61
    Erstellt: 05.10.05   #3
    Yeah ! :D *direktmadienoteninsgehirnhämmer* :rock:
    Danke :great:
     
Die Seite wird geladen...

mapping