[Tab] Sentenced - Vengeance is mine

von dynasty, 05.10.06.

  1. dynasty

    dynasty Registrierter Benutzer

    Im Board seit:
    04.09.05
    Zuletzt hier:
    5.04.15
    Beiträge:
    187
    Ort:
    Wardenburg
    Zustimmungen:
    0
    Kekse:
    73
    Erstellt: 05.10.06   #1
    hey,
    vllt hat jmd von euch ja schon dieses lied gespielt. ich mein
    besonders die 2.guitar. ich finde dies ein bisschen schwierig,
    aber vllt hat jmd von euch noch ein leichteres oder hat nen tip für mich.


    PM PM PM PM PM PM
    E E E E E E Q E E E E E E E E
    D|| ---------------5------------|----------------------------|
    A|| --------5h--6-----6-------|----------6--------5--6--5|
    F|| --7--7---------------7\----|--3--3-----3--3-----------|
    C|| --7--7---------------------|--3--3-----1--3-----------|
    G|| --5--5---------------------|--1--1-----1--1-----------|
    D|| ----------------------------|-----------------------------|


    PM PM PM PM PM PM PM PM
    E E E E E E E E E E E E E E E E
    --------3-----------------|--------------------------|
    -----------------6--------|--5--------6-----5--------|
    --5--5-----5--5-----5--5--|-----5--5-----------7--5--|
    --5--3-----3--3-----3--3--|-----3--5-----------------|
    --3--3-----3--3-----3--3--|-----3--3-----------------|
    --------------------------|--------------------------|


    PM PM PM PM PM PM
    E E E E E E Q E E E E E E E E
    ---------------5-----------|--------------------------|
    --------5h--6-----6--------|--------6--------5--6--5--|
    --7--7---------------7\----|--3--3-----3--3-----------|
    --7--7---------------------|--3--3-----1--3-----------|
    --5--5---------------------|--1--1-----1--1-----------|
    ---------------------------|--------------------------|


    PM PM PM PM PM PM PM PM PM
    E E E E E E E E E E E E E E Q W
    --------3-----------------|-----------5-----3-------|-------------------|
    -----------------6--------|--5----------------------|-------------------|
    --5--5-----5--5-----5--5--|-----5--5-----5----------|--7----------------|
    --5--3-----3--3-----3--3--|-----5--5-----5----------|--7----------------|
    --3--3-----3--3-----3--3--|-----3--3-----3----------|--5----------------|
    --------------------------|-------------------------|-------------------|


    so ungefähr is das tab, was ich habe^^

    vielen dank im vorraus. mfg
     
  2. Flower King

    Flower King Registrierter Benutzer

    Im Board seit:
    10.04.06
    Zuletzt hier:
    22.12.13
    Beiträge:
    371
    Ort:
    Nähe Münster
    Zustimmungen:
    2
    Kekse:
    284
    Erstellt: 06.10.06   #2
    Powerchords greif ich mit Z,R und P (Zeige, Ring und Kleinem ;))


    -----------------Z---M------Z---M-R-----------------Z-----------Z---M-Z-|
    D|| ------------------------5--------------|--------------------------------|
    A|| ------------5h--6----------6----------|----------6------------5--6--5|
    F|| --7--7-------------------------7\------|-------------------------------|
    C|| --7--7---------------------------------|--8--8-------8--8-------------|
    G|| --5--5---------------------------------|--8--8-------6--8-------------|
    D|| ----------------------------------------|--6--6-------6--6-------------|


    Ich hab den zweiten Powerchord dahinverlegt, da du die Chords eh mutest (ich machs mit Handballen) und du somit schön mit dem Zeigefinger umsetzen kannst.

    Den dritten Powerchord in Takt 2 spielst du einfach indem du den Mittelfinger anhebst...




    --------Z--------P-------------P----------------M----Z-------R--Z---|
    --------3-------------------|------------------------------------------|
    -----------------6----------|--5----------------6-----5---------------|
    --5--5-----5--5-----5--5--|-----5--5-----------------------7--5-----|
    --5--3-----3--3-----3--3--|-----3--5--------------------------------|
    --3--3-----3--3-----3--3--|-----3--3--------------------------------|
    ----------------------------|------------------------------------------|

    Bei der Figur bildest du automatisch mit dem Fingersatz einen Barée um das F (3) oben zu greifen:
    R
    Z
    Z----Z
    -----3
    ------
    5----
    3----
    3----

    Ja den Pinky benutzen, das geht am besten, imo. Musst nur n starken Pinky haben, bzw. locker genug sein.


    Hier der erste Fingersatz:

    -----------------Z---M------Z---M-R-----------------Z-----------Z---M-Z-|
    D|| ------------------------5--------------|--------------------------------|
    A|| ------------5h--6----------6----------|----------6------------5--6--5|
    F|| --7--7-------------------------7\------|-------------------------------|
    C|| --7--7---------------------------------|--8--8-------8--8-------------|
    G|| --5--5---------------------------------|--8--8-------8--8-------------|
    D|| ----------------------------------------|--6--6-------6--6-------------|


    --P-R------R-R----------R---R
    --R-Z------Z-Z----------Z---Z
    --Z-Z--Z---Z-Z-----P----Z--Z-----P----------------P------Z
    --------3-------------------------|------------------5-----3-------|---------------------|
    ---------------------6------------|--5-----------------------------|---------------------|
    --5--5-----5--5-----------5--5--|---------------------------------|----7----------------|
    --5--3-----3--3-----------3--3--|-----5--5-----5-----------------|----7----------------|
    --3--3-----3--3-----------3--3--|-----3--3-----3-----------------|----5----------------|
    -----------------------------------|---------------------------------|---------------------|

    Die letzten Powerchords hab ich vereinfacht, liegt besser...
     
  3. dynasty

    dynasty Threadersteller Registrierter Benutzer

    Im Board seit:
    04.09.05
    Zuletzt hier:
    5.04.15
    Beiträge:
    187
    Ort:
    Wardenburg
    Zustimmungen:
    0
    Kekse:
    73
    Erstellt: 10.10.06   #3
    erstmal vielen dank .. habe aber imo echt noch probleme das zu spielen ..
     
  4. Flower King

    Flower King Registrierter Benutzer

    Im Board seit:
    10.04.06
    Zuletzt hier:
    22.12.13
    Beiträge:
    371
    Ort:
    Nähe Münster
    Zustimmungen:
    2
    Kekse:
    284
    Erstellt: 10.10.06   #4
    Ja ich find das auch n bissl seltsam, zumal da noch die Powerchords geändert werden. Das ist nunmal der einzige Fingersatz womit ichs halbwegs vernünftig spielen kann. Daher ists mehr ein Denkanstoß.

    Zumindest find ichs wichtig den zweiten Powerchord auf die Basssaiten zu legen, weil man somit weitaus bequemer greifen kann...
     
  5. dynasty

    dynasty Threadersteller Registrierter Benutzer

    Im Board seit:
    04.09.05
    Zuletzt hier:
    5.04.15
    Beiträge:
    187
    Ort:
    Wardenburg
    Zustimmungen:
    0
    Kekse:
    73
    Erstellt: 10.10.06   #5
  6. Flower King

    Flower King Registrierter Benutzer

    Im Board seit:
    10.04.06
    Zuletzt hier:
    22.12.13
    Beiträge:
    371
    Ort:
    Nähe Münster
    Zustimmungen:
    2
    Kekse:
    284
    Erstellt: 10.10.06   #6
    Wenn ich demnächst mal annen Pc komm mit DSL Anschluss, versuch ichs... ;) Also gedulde dich bitte (1-2Wochen), wenn ich dazu aber Zeit find, mach ichs!
     
Die Seite wird geladen...

mapping