Tab zu Eye of the Tiger

von roller78, 08.10.05.

  1. roller78

    roller78 Registrierter Benutzer

    Im Board seit:
    06.11.04
    Zuletzt hier:
    10.04.16
    Beiträge:
    50
    Ort:
    Dettingen
    Zustimmungen:
    0
    Kekse:
    21
    Erstellt: 08.10.05   #1
    Hallo,

    kann mir mal bitte jemand einen RICHTIGEN Tab zu Eye og the Tiger zeigen?
    Alles was ich im Netz gefunden habe stimmt nicht 100%ig.


    Danke
     
  2. Andreas Gerhard

    Andreas Gerhard Registrierter Benutzer

    Im Board seit:
    04.03.05
    Zuletzt hier:
    8.07.16
    Beiträge:
    1.086
    Ort:
    Goldbach
    Zustimmungen:
    6
    Kekse:
    621
    Erstellt: 08.10.05   #2
    dann besser halt aus ;D

    wäre sicher ne gute übung
     
  3. roller78

    roller78 Threadersteller Registrierter Benutzer

    Im Board seit:
    06.11.04
    Zuletzt hier:
    10.04.16
    Beiträge:
    50
    Ort:
    Dettingen
    Zustimmungen:
    0
    Kekse:
    21
    Erstellt: 08.10.05   #3

    ?????
     
  4. LoneLobo

    LoneLobo Mod Emeritus Ex-Moderator HCA

    Im Board seit:
    13.04.04
    Zuletzt hier:
    25.11.16
    Beiträge:
    8.457
    Ort:
    Österreich
    Zustimmungen:
    138
    Kekse:
    22.219
    Erstellt: 08.10.05   #4
    Du sollst die Tabs ausbessern :)

    Wenn du schon hörst, was falsch ist, müssteste doch durch rumprobieren etc. rausfinden, was da richtiger klingt.

    Und das kannste dann ausbessern.
     
  5. Stan

    Stan Registrierter Benutzer

    Im Board seit:
    06.06.04
    Zuletzt hier:
    4.10.09
    Beiträge:
    284
    Ort:
    Singen am Htwl.
    Zustimmungen:
    1
    Kekse:
    293
  6. Stringgod

    Stringgod HCA Gitarre HCA

    Im Board seit:
    31.08.04
    Zuletzt hier:
    30.12.14
    Beiträge:
    2.111
    Ort:
    Essen
    Zustimmungen:
    4
    Kekse:
    2.130
    Erstellt: 08.10.05   #6
    Es scheint alles zu stimmen, bis auf die Gitarre. Das wundert mich etwas.

    Ich würde das Introriff so spielen:

    |---------------------------|
    |---------------------------|
    |---------------------------|
    |-5--5-3-5--5-3-5--5--------|
    |-3--3-1-3--3-1-3--3-6-6----|
    |--------------------3-4----|


    Dann das Riff vor der 1. Strofe:

    |---------------------------|
    |----8-6-4--8-6-4-----------|
    |----8-7-3--8-7-3-----------|
    |-5----------------5--------|
    |-3----------------3-6-6----|
    |--------------------3-4----|


    Und die Bridge:

    |------------------------------------------|
    |------------------------------------------|
    |----8-7-----8-3-----8-7-------------------|
    |-3--8-8--3--8-3--3--8-8--3-2-3-5-3-5-6----|
    |-3-------3--6-1--3------------------------|
    |-1-------1-------1------------------------|


    Aber ich finde es sehr schwierig, die Positionen der Voicings etc. rauszuhören. So würde ich es auf meiner Gitarre spielen. Deshalb keine Garantie.
     
Die Seite wird geladen...

mapping