tabanfrage für kurzsong auf guitarplayerTV

von c.h.a.o.t, 06.05.07.

  1. c.h.a.o.t

    c.h.a.o.t Registrierter Benutzer

    Im Board seit:
    23.12.04
    Zuletzt hier:
    6.12.16
    Beiträge:
    62
    Ort:
    Karlsruhe
    Zustimmungen:
    0
    Kekse:
    10
    Erstellt: 06.05.07   #1
    hallosen,

    ich hab vor kurzem mal auf guitarplayerTV rumgezappt und ein meiner meinung nach SEHR interessantes riff gehört. ja das is geschmackssache, als vorab, ich würde es als banjosound-country-rock'n'roll bezeichnen.
    es nennt sich "hot pussum" gespielt von "lyle ronglien"
    ich kann leider keinen direktlink setzten, weil die seite mit flash gemacht ist.
    also klickt euch bitte selbst durch:
    Guitar Player TV --> NEW! Rockit guitars --> hot pussum

    wäre sehr nett wenn sich jemand kurz damit beschäftigt und mir helfen könnte! :)
    am tollsten wär natürlich ein kompletter tab (achso und bitte keine GP dateien, powertab oder ganz ohne prog bitte) aber ich freu mich über jeden beitrag! :great:

    danke im vorraus!
    gruß Alex
     
  2. Hans_3

    Hans_3 High Competence Award HCA

    Im Board seit:
    09.11.03
    Beiträge:
    16.150
    Zustimmungen:
    1.124
    Kekse:
    49.622
    Erstellt: 06.05.07   #2
    Ist halt so'n Hillybilly-Geschrammel (Hilllybilly - der etwas grobe Country von den Bauern aus den Bergen, oft mit Gitarre und Violine zelebriert...)


    Den ganzen Kram tabben mach' ich natürlich net. Das sind eh alles etwas grob gespielte Grundmuster, die man variabel gestalten sollte.

    Wühl Dich erst mal durch die folgenden Übungen, dann kommste mit der ZEit von selbst zum Ziel.

    Grundmuster

    -------------------------
    ---------------------
    ---------------------
    ----0------0-----0------0--
    --------2------------2----
    3-------------3---------

    Grundmuster erweitert mit Vollakkord (lernt man eigentlich im 1. Jahr Gitarre)

    ----3------3-----3------3-------
    ----0------0-----0------0----
    ----0------0-----0------0-------
    ----0------0-----0------0--
    --------2------------2----
    3-------------3---------

    variert mit Hammer on


    ----3---------3-------3---------3-------
    ----0---------0-------0---------0----
    ----0---------0-------0---------0-------
    ----0---------0-------0---------0--
    --------0h2---------------0h2-------
    3-------------------3---------------

    Doppelanschläge dazu

    ----3---------3--3-----3---------3--3-----
    ----0---------0--0-----0---------0--0--
    ----0---------0--0-----0---------0--0-----
    ----0---------0--0-----0---------0--0----
    --------0h2---------------0h2-------
    3---------------------3---------------


    Beispiel für Intro / Zwischenspiel

    3--3--3---3---3--3---3--3--3----3--3-3----------------3-
    0--1--2--2h3--3----2h3--------2h3--3-3---3------------0-
    -------------------------------------------2b3r2---0----0-
    --------------------------------------------------------0-
    ----------------------------------------------------------
    ------------------------------------------------------3---
     
  3. c.h.a.o.t

    c.h.a.o.t Threadersteller Registrierter Benutzer

    Im Board seit:
    23.12.04
    Zuletzt hier:
    6.12.16
    Beiträge:
    62
    Ort:
    Karlsruhe
    Zustimmungen:
    0
    Kekse:
    10
    Erstellt: 06.05.07   #3
    dankeschön!! :)

    jetzt wo ich die tabs vor der nase hab siehts wirklich locker aus ^^
     
Die Seite wird geladen...

mapping