Tabs für RHCP - Danil California

von gainer, 02.04.06.

  1. gainer

    gainer Registrierter Benutzer

    Im Board seit:
    01.11.05
    Zuletzt hier:
    27.10.16
    Beiträge:
    570
    Ort:
    Köln
    Zustimmungen:
    0
    Kekse:
    10
    Erstellt: 02.04.06   #1
    Hi
    vielleicht hat sich ja schon ein talentierter gitarrist daran gemacht dani california zu tabben :)?

    hier kann mans sich anhören/gucken:
    http://www.youtube.com/watch?v=YUYuNqc0T_g

    vielleicht machts noch einer?
     
  2. Korittke

    Korittke Registrierter Benutzer

    Im Board seit:
    21.11.04
    Zuletzt hier:
    29.07.09
    Beiträge:
    538
    Zustimmungen:
    1
    Kekse:
    166
  3. Cornholio

    Cornholio Registrierter Benutzer

    Im Board seit:
    06.12.04
    Zuletzt hier:
    2.10.16
    Beiträge:
    2.423
    Zustimmungen:
    1
    Kekse:
    3.182
    Erstellt: 02.04.06   #3
    Nja...
     
  4. Argolonde

    Argolonde Registrierter Benutzer

    Im Board seit:
    04.03.06
    Zuletzt hier:
    5.04.06
    Beiträge:
    15
    Zustimmungen:
    0
    Kekse:
    10
    Erstellt: 03.04.06   #4
    Das sind eher untypische Griffe für John.
    Das geht mehr in die Richtung:

    Code:
    ------------------------------------------------------
    -------------------------------------------------------
    ---------------5-5--x--5-->--7-7-7-7--------------
    -3--3--3-x-x---5-5--x--5-->--7-7-7-7---5--5--5---
    -3--3--3-x-x---3-3--x--3-->--5-5-5-5---5--5--5---
    -1--1--1-x-x---------------------------3--3--3----
    
    usw.
    Das Solo kann ich vor lauter Studio-Mixing und Wah Wah nicht heraushören. Da muss man wohl auf die ersten Konzerte warten und John auf die Finger schauen.
     
  5. xicles

    xicles Registrierter Benutzer

    Im Board seit:
    26.09.05
    Zuletzt hier:
    6.07.09
    Beiträge:
    81
    Zustimmungen:
    1
    Kekse:
    92
    Erstellt: 03.04.06   #5
    Code:
    Red Hot Chili Peppers - Dani California
    
    
    It's not easy to figure out that rhythm. Try yourself, that's just my version, it's quite okay,
    but surely not perfect!
    
    Chorus:
    
    |---------------------------------------------------|
    |---------------------------------------------------|
    |-----------5-5-xx-5/7-7-7-7x7----------------------|
    |-3-3-3-xx--5-5-xx-5/7-7-7-7x7--5-5-5/--------------|
    |-3-3-3-xx--3-3-xx-3/5-5-5-5x5--5-5-5/--------------|
    |-1-1-1-xx----------------------3-3-3/--------------| x3
    
    
    |---------------------------------------------------|
    |---------------------------------------------------|
    |-----------5-5-xx-5/7-7-7-7x7x7-x7x7-x7x7----------|
    |-3-3-3-xx--5-5-xx-5/7-7-7-7x7x7-x7x7-x7x7----------|
    |-3-3-3-xx--3-3-xx-3/5-5-5-5x5x5-x5x7-x5x5----------|
    |-1-1-1-xx------------------------------------------| x1
    
    
    Here is also my version of John's new solo part. You can hear hardly the last part of that solo, because it's just
    fading out in the video of the DC making-of. Sounds good, but of course, it isn't complete at all.
    Try to figure out that part;)
    
    Solo:
    
    |---------------------------------------------------------|
    |---------------------------------------------------------|
    |---------------------------------------------------------|
    |-------15-12~~-------------------------------------------|
    |-12-15----------10-10p7-10-10p7-10p7--------------5~-------|
    |------------------------------------10--5/3-3h5p3--------|
    
    Thanks to interior_two

    /update:

    Code:
    e|----------------|----------------|
    B|-----5-------3--|-----6-------5--|
    G|-----5-------4--|-----7-------5--|
    D|-----7-------5--|-----7-------7--|2x
    A|----------------|-5-5------------|
    E|-5-5—--x-3-3----|--------5-5-----|
    
    Gettin' born in the state of Mississippi  Papa was a copper and momma was a hippie 
    In Alabama, she would swing a hammer      Price you gotta pay when you break the panorama 
    e|----------------|----------------|
    B|-----5-------3--|-----6-------5--|
    G|-----5-------4--|-----7-------5--|
    D|-----7-------5--|-----7-------7--|2x
    A|----------------|-5-5------------|
    E|-5-5—--x-3-3----|--------5-5-----|
    
    She never knew that there was anything more than poor 
    e|-------------------------|--------------------|
    B|-------------------------|--------------------|
    G|-----5h7p5--------4h5p4--|------7------x----5-|
    D|-7--------7—-x-5-------5-|-0-----------x-5h7--|
    A|-------------------------|--------------------|
    E|-------------------------|--------------------|
    What in the world does your company take me for 
    e|-------------------------|-----------------5\-|
    B|-------------------------|-----------------5\-|
    G|-----5h7p5--------4h5p4--|------7------x---5\-|
    D|-7--------7—-x-5-------5-|-0-----------x------|
    A|-------------------------|--------------------|
    E|-------------------------|--------------------|
    
    (same as 1st verse)
    Black bandana, sweet Louisiana 
    Robbin' on a bank in the state of Indiana 
    She's a runner, rebel and a stunner 
    condemned everywhere sayin' baby whatcha gonna 
    
    Lookin down the barrel of a hot METAL .45 
    e|-------------------------|--------------------|
    B|-------------------------|--------------------|
    G|-----5h7p5--------4h5p4--|------7------x----5-|
    D|-7--------7—-x-5-------5-|-0-----------x-5h7--|
    A|-------------------------|--------------------|
    E|-------------------------|--------------------|
    Just another way to survive 
    e|-------------------------|-------------------|
    B|-------------------------|-6-6-6-6-6-6-6-6-6-|
    G|-----5h7p5--------4h5p4--|-7-7-7-7-7-7-7-7-7-|
    D|-7--------7—-x-5-------5-|-7-7-7-7-7-7-7-7-7-|
    A|-------------------------|-5-5-5-5-5-5-5-5-5-|
    E|-------------------------|-------------------|
    
    
    Chorus:
    California rest in peace, 
    Simultaneous release, 
    California Show your teeth, 
    e|-------------------------------------|
    B|-------------------------------------|
    G|-----------5-5-xx-5/7-7-7-7x7--------|
    D|-3-3-3-xx--5-5-xx-5/7-7-7-7x7--5-5-5-|
    A|-3-3-3-xx--3-3-xx-3/5-5-5-5x5--5-5-5-|
    E|-1-1-1-xx----------------------3-3-3-| x3
    
    She's my priestess I'm your priest  Yeah Yeah 
    e|--------------------------------|--------------------|
    B|--------------------------------|--------------------|
    G|-----------5-5-xx-5/7-7-7-7x7x7-|-x7x7-x7x7----------|
    D|-3-3-3-xx--5-5-xx-5/7-7-7-7x7x7-|-x7x7-x7x7----------| (number) means only first chorus 
    A|-3-3-3-xx--3-3-xx-3/5-5-5-5x5x5-|-x5x7-x5x5—(5)---(0)|
    E|-1-1-1-xx-----------------------|-------------(0h3)--| 
    
    
    (2 guitars)
    e|-8---7---10---12---|-8---7---10---17---|
    B|-------------------|-------------------|
    G|-9---7---10---14---|-9---7---10---14---|
    D|-------------------|-------------------|
    A|-------------------|-------------------|
    E|-------------------|-------------------|
    
    
    She's a lover, baby and a fighter  She should've seen it comin when it got a little brighter 
    With a name like Dani California   The day was gonna come when I was gonna mourn ya 
    e|----------10--------|----------10--------|
    B|-10---8--------10---|-10---8--------10---|
    G|--------------------|--------------------|2x
    D|--------------------|--------------------|
    A|--------------------|--------------------|
    E|--------------------|--------------------|
    A little loaded she was stealing another breath 
    e|-------------------------|--------------------|
    B|-------------------------|--------------------|
    G|-----5h7p5--------4h5p4--|------7------x----5-|
    D|-7--------7—-x-5-------5-|-0-----------x-5h7--|
    A|-------------------------|--------------------|
    E|-------------------------|--------------------|
    I love my baby to death
    e|-------------------------|-------------------|
    B|-------------------------|-6-6-6-6-6-6-6-6-6-|
    G|-----5h7p5--------4h5p4--|-7-7-7-7-7-7-7-7-7-|
    D|-7--------7—-x-5-------5-|-7-7-7-7-7-7-7-7-7-|
    A|-------------------------|-5-5-5-5-5-5-5-5-5-|
    E|-------------------------|-------------------|
    
    
    Chorus
    
    
    Who knew the other side of you
    Who knew the other side you proved
    e|----7------7------|---7---------------|
    B|----7------7------|---7---------------|
    G|----7------7------|---7-------x-6-----|2x
    D|------------------|-------------------|
    A|------------------|-------------------|
    E|------------------|-------------------|
    Too true to say goodbye to you
    e|----7------7------|---7---------------|
    B|----7------7------|---7---------------|
    G|----7------7------|---7-------x-6-----|
    D|------------------|-------------------|
    A|------------------|-------------------|
    E|------------------|-------------------|
    |                  |                   |
    e|------------------|-------------------|
    B|-12---------------|---12-------10-----|
    G|------------------|-------------------|
    D|------------------|-------------------|
    A|------------------|-------------------|
    E|------------------|-------------------|
    Too true too sad sad sad
    e|----7------7------|---7---------------|
    B|----7------7------|---7---------------|
    G|----7------7------|---7---------------|
    D|------------------|-------------------|
    A|------------------|-------------------|
    E|------------------|-------------------|
    |                  |                   |
    e|------------------|-------------------|
    B|-12---------------|-------------------|
    G|------------------|-------------------|
    D|------------------|-------------------|
    A|------------------|-------------------|
    E|------------------|-------------------|
    
    First to fade her, gifted and I made her One for the now and eleven for the later 
    Never made it, up to Minnesota  North Dakota man was a comin' for the quota 
    e|-------------------|-------------------|
    B|-------------------|-------------------|
    G|-9---7---10---9----|-9---7---10---14---|
    D|-------------------|-------------------|
    A|-------------------|-------------------|
    E|-------------------|-------------------|
    Down in the badlands she was saving the best for last 
    e|-------------------------|--------------------|
    B|-------------------------|--------------------|
    G|-----5h7p5--------4h5p4--|------7------x----5-|
    D|-7--------7—-x-5-------5-|-0-----------x-5h7--|
    A|-------------------------|--------------------|
    E|-------------------------|--------------------|
    It only hurts when I laugh              Gone too fast
    e|-------------------------|-------------------|-------------------|
    B|-------------------------|-6-6-6-6-6-6-6-6-6-|-9-9-9-9-9-9-9-9-9-|
    G|-----5h7p5--------4h5p4--|-7-7-7-7-7-7-7-7-7-|-9-9-9-9-9-9-9-9-9-|
    D|-7--------7—-x-5-------5-|-7-7-7-7-7-7-7-7-7-|-9-9-9-9-9-9-9-9-9-|
    A|-------------------------|-5-5-5-5-5-5-5-5-5-|-7-7-7-7-7-7-7-7-7-|
    E|-------------------------|-------------------|-------------------|
    |                         |                   |                   |
    e|-------------------------|-13----------------|-16----------------|
    B|-------------------------|-------------------|-------------------|
    G|-------------------------|--==---------------|-------------------|
    D|-------------------------|-------------------|-------------------|
    A|-------------------------|-------------------|-------------------|
    E|-------------------------|-------------------|-------------------|
    
    
    Chorus
    
    2nd Chorus:
    California rest in peace, 
    Simultaneous release, 
    e|-------------------------------------|
    B|-------------------------------------|
    G|-----------5-5-xx-5/7-7-7-7x7--------|
    D|-3-3-3-xx--5-5-xx-5/7-7-7-7x7--5-5-5-|
    A|-3-3-3-xx--3-3-xx-3/5-5-5-5x5--5-5-5-|
    E|-1-1-1-xx----------------------3-3-3-| 
    |                                     |2x
    e|-------------------------------------|
    B|-------------------------------------|
    G|-----------12-------14---------------|
    D|-------------------------------------|
    A|-------------------------------------|
    E|-------------------------------------|
    
    California Show your teeth, 
    e|-------------------------------------|
    B|-------------------------------------|
    G|-----------5-5-xx-5/7-7-7-7x7--------|
    D|-3-3-3-xx--5-5-xx-5/7-7-7-7x7--5-5-5-|
    A|-3-3-3-xx--3-3-xx-3/5-5-5-5x5--5-5-5-|
    E|-1-1-1-xx----------------------3-3-3-| 
    |                                     |
    e|-----------12-------13---------10----|
    B|-10----------------------------------|
    G|-------------------------------------|
    D|-------------------------------------|
    A|-------------------------------------|
    E|-------------------------------------|
    
    She's my priestess I'm your priest  Yeah Yeah 
    e|--------------------------------|-----------|
    B|--------------------------------|-----------|
    G|-----------5-5-xx-5/7-7-7-7x7x7-|-x7x7-x7x7-|
    D|-3-3-3-xx--5-5-xx-5/7-7-7-7x7x7-|-x7x7-x7x7-|
    A|-3-3-3-xx--3-3-xx-3/5-5-5-5x5x5-|-x5x7-x5x5-|
    E|-1-1-1-xx-----------------------|-----------| 
    |                                |           |
    e|-----------12-------13----------|-17--------|
    B|-10-----------------------------|-----------|
    G|--------------------------------|-----------|
    D|--------------------------------|-----------|
    A|--------------------------------|-----------|
    E|--------------------------------|-----------|
    
    
    E|-----5-------------------------------------|
    B|-----6-------------------------------------|
    G|---5---7~----------------------------------|
    D|-7--------7\5p3—5p3-5p3-5p3----------------|
    A|---------------------------5-----------/5--|
    E|------------------------------/5--3--1-----|
    
    E|-----5----------------------------------------|
    B|-----6--------------------------------13-15~/-|
    G|---5---7~--2h5p2-5p2-5p2-5p2-5/7---14---------|
    D|-7--------------------------------------------|
    A|----------------------------------------------|
    E|----------------------------------------------|
    
    E|-----5-------------------------------------|
    B|-----6-------------------------------------|
    G|---5---7~----------------------------------|
    D|-7--------7\5p3—5p3-5p3-5p3----------------|
    A|---------------------------5-----------/5--|
    E|------------------------------/5--3--1-----|
    
    E|-----5----------------------------------------|
    B|-----6--------------------------------13-15~/-|
    G|---5---7~--2h5p2-5p2-5p2-5p2-5/7---14---------|
    D|-7--------------------------------------------|
    A|----------------------------------------------|
    E|----------------------------------------------|
    
    E|---------------------------------------------------------------|
    B|------13-15-13----15-13----15-13----15-13----15-13----15-13----|
    G|---14----------14-------14-------14-------14-------14-------14-|
    D|---------------------------------------------------------------|
    A|---------------------------------------------------------------|
    E|---------------------------------------------------------------|
    
    E|-----5----------------------------------------|
    B|-----6----------------------------------------|
    G|---5---7~--2h5p2-5p2-5p2-------------5--------|
    D|-7-----------------------5p3---3-5/7---5p3----|
    A|-----------------------------5-------------5--|
    E|----------------------------------------------|
    
    E|-----5-------------------------------------|
    B|-----6-------------------------13-15b16b15-|
    G|---5---7~---5---5---5-7b----14-------------|
    D|-7--------7---7---7------------------------|
    A|-------------------------------------------|
    E|-------------------------------------------|
    
    E|-----5-------------------------------------|
    B|-----6-------------------------------------|
    G|---5---7~----------------------------------|
    D|-7--------7\5p3—5p3-5p3-5p3----------------|
    A|---------------------------5-----------/5--|
    E|------------------------------/5--3--1-----|
    
    e|----------------------------------------------|
    B|----10h13p10---10h13p10---10h13p10---10h13p10-|
    G|-b12--------b12--------b12--------b12---------| played pretty fast J
    D|----------------------------------------------|repeat this a few times.
    A|----------------------------------------------|
    E|----------------------------------------------|
    
    e|-13h15-15-13h15-15-13h15-15-13h15-15-|
    B|-------------------------------------|
    G|-------------------------------------| also pretty fast
    D|-------------------------------------| repeat a few times
    A|-------------------------------------|
    E|-------------------------------------|
    
    e|------13---------------------------------------------|
    B|-13h15--15-13-----10h13p10---10h13p10----------------|
    G|---------------b12--------b12--------b12~~p10--------|
    D|----------------------------------------------12-----|
    A|-----------------------------------------------------|
    E|-----------------------------------------------------|
    
    Thanks to Frusciandrix

    Fuer den Anhang ein Danke an Jonah
     

    Anhänge:

  6. Argolonde

    Argolonde Registrierter Benutzer

    Im Board seit:
    04.03.06
    Zuletzt hier:
    5.04.06
    Beiträge:
    15
    Zustimmungen:
    0
    Kekse:
    10
    Erstellt: 03.04.06   #6
    Sehr gut :great:
     
  7. gainer

    gainer Threadersteller Registrierter Benutzer

    Im Board seit:
    01.11.05
    Zuletzt hier:
    27.10.16
    Beiträge:
    570
    Ort:
    Köln
    Zustimmungen:
    0
    Kekse:
    10
    Erstellt: 04.04.06   #7
    jo thx is gut. Scheisse gefällt mir der song so nach dem 20ten mal hören^^
     
  8. KamiMatze

    KamiMatze Registrierter Benutzer

    Im Board seit:
    15.12.05
    Zuletzt hier:
    5.12.10
    Beiträge:
    639
    Ort:
    Karlsruhe (Ettlingen)
    Zustimmungen:
    4
    Kekse:
    804
    Erstellt: 04.04.06   #8
    HrrHrr,

    nicht mal mit Gp 4 kann man des öffnen ,
    so ein Scheiß!

    Dennoch danke
     
  9. Josh TE

    Josh TE Registrierter Benutzer

    Im Board seit:
    13.03.04
    Zuletzt hier:
    22.04.09
    Beiträge:
    751
    Ort:
    Berlin
    Zustimmungen:
    3
    Kekse:
    294
    Erstellt: 04.04.06   #9
    höre und sehe das Ding gerade zum ersten mal und muss sagen. einfach überirdisch geil der Song. Mal wieder typisch.........dieser Haufen lässt doch alles an sich vorbeigehen und die bügeln alles um.
    Auch ein sehr geiles Video
     
  10. xicles

    xicles Registrierter Benutzer

    Im Board seit:
    26.09.05
    Zuletzt hier:
    6.07.09
    Beiträge:
    81
    Zustimmungen:
    1
    Kekse:
    92
    Erstellt: 04.04.06   #10
    Deswegen hat ich eigentlich die *.pdf mit angehangen.
    Als *.gp4 klingts zwar nicht so lecker, aber bitte schoen:
     

    Anhänge:

  11. KamiMatze

    KamiMatze Registrierter Benutzer

    Im Board seit:
    15.12.05
    Zuletzt hier:
    5.12.10
    Beiträge:
    639
    Ort:
    Karlsruhe (Ettlingen)
    Zustimmungen:
    4
    Kekse:
    804
    Erstellt: 04.04.06   #11
    Dange
    als *.pdf bringts mir nciht so viel, da kann ich genauso auf irgende tab-seite gehen :cool:

    Haut rein!

    Edit: Happiges Solo (ganz) am Ende ^^
     
  12. xicles

    xicles Registrierter Benutzer

    Im Board seit:
    26.09.05
    Zuletzt hier:
    6.07.09
    Beiträge:
    81
    Zustimmungen:
    1
    Kekse:
    92
    Erstellt: 10.04.06   #12
    Update!
     

    Anhänge:

  13. Mighty Scoop

    Mighty Scoop Registrierter Benutzer

    Im Board seit:
    11.01.05
    Zuletzt hier:
    8.10.13
    Beiträge:
    1.512
    Zustimmungen:
    8
    Kekse:
    1.457
    Erstellt: 10.04.06   #13
    Das stimmt. EIns der besten Soli ( bei Studioaufnahmen ) von John wie ich finde. Da traut er sich endlich mal, auch etwas abgedrehter ,wie er es live immer macht, zu solieren.
     
  14. KamiMatze

    KamiMatze Registrierter Benutzer

    Im Board seit:
    15.12.05
    Zuletzt hier:
    5.12.10
    Beiträge:
    639
    Ort:
    Karlsruhe (Ettlingen)
    Zustimmungen:
    4
    Kekse:
    804
    Erstellt: 10.04.06   #14
    Ja genau, hat mich auch gefreut, dass John endlich mal was anspruchvolleres spielt und am Ende kommt ja der typische dreckige Distortion Sound, den man sonst so richtig nur in live Versionen spürt :D
     
  15. gainer

    gainer Threadersteller Registrierter Benutzer

    Im Board seit:
    01.11.05
    Zuletzt hier:
    27.10.16
    Beiträge:
    570
    Ort:
    Köln
    Zustimmungen:
    0
    Kekse:
    10
    Erstellt: 10.04.06   #15
    Hmm. Hör dir mal Blood Sugar Sex Magic an. Da gibts einige. zB. I Like Dirt, My lovely Man!
     
  16. Mighty Scoop

    Mighty Scoop Registrierter Benutzer

    Im Board seit:
    11.01.05
    Zuletzt hier:
    8.10.13
    Beiträge:
    1.512
    Zustimmungen:
    8
    Kekse:
    1.457
    Erstellt: 10.04.06   #16

    Ja kenne ich, aber die erreichen imho noch nicht ganz das, was er heutzutage live bringt. Im allgemeineren fiel ja John ,auch bei der Blood Sugar Sex and Magic teilweise schon, durch sehr harmonische und melodiöse ( und deshalb manchmal imho etwas zu glatte ) Soli auf.
     
Die Seite wird geladen...

mapping