Tabs, ich checks nicht :-(

von Maddy, 08.02.06.

  1. Maddy

    Maddy Registrierter Benutzer

    Im Board seit:
    20.01.06
    Zuletzt hier:
    20.04.08
    Beiträge:
    61
    Ort:
    Hirsau bei Calw
    Zustimmungen:
    0
    Kekse:
    10
    Erstellt: 08.02.06   #1
    Hallo

    Hab mir jetzt schon en paar mal verschiedene Tab Seiten durchgelesen, an sich ist auch alles klar, nur nicht wenn ne 0 steht und wieviele Saiten ich schlagen muss.

    Mal en Beispiel:

    Gun's and Roses - Knockin' on Heaven'S Door

    e-----------3---------------------------------2---0-------------------------|
    h---3-----------3-------3--------------3--------------3-------3------------|
    G---0---------------0-------------2------------------------2----------------|
    D---0-------------------------0----------------------------------------------|
    A----------------------------------------------------------------------------|
    E---3------------------------------------------------------------------------|

    Ist mal ein kleines Stück vom Anfang. Aber wieviele Saiten soll ich jetzt schlagen?

    Mal en anderes Beispiel:

    Blink 182 - First Date

    e-----0----------------------------------------------------------|
    h---------1---------1-----------3----1-------------1------------|
    G-------------0-----------0----------------0-------------0------|
    D----------------------------------------------------------------|
    A----------------------------------------------------------------|
    E----------------------------------------------------------------|

    Am Anfang nur das e anschlagen? Wie ist es bei der 1 danach? Nur 1. Bund h?

    Bin schon bisschen am verzweifeln ;)

    Danke für die Hilfe *g*
     
  2. rAyoN

    rAyoN Gesperrter Benutzer

    Im Board seit:
    29.10.05
    Zuletzt hier:
    19.12.14
    Beiträge:
    311
    Ort:
    Hamm
    Zustimmungen:
    0
    Kekse:
    17
    Erstellt: 08.02.06   #2
    BEI NULL SCHLÄGST DU DIE SAITE EINFACH LEER AN
    und wenn da halt nichts steht also keine zahl wird die saite nich angeschlagen
     
  3. Ripping Angelflesh

    Ripping Angelflesh Registrierter Benutzer

    Im Board seit:
    11.12.04
    Zuletzt hier:
    16.01.12
    Beiträge:
    1.501
    Ort:
    Bayern
    Zustimmungen:
    2
    Kekse:
    1.040
    Erstellt: 08.02.06   #3
    also bei ner null einfach die saite anschlagen ..
    und immer nur die anschlagen die angezeigt wird also wenn nur eine zahl drinsteht nur DIESE spielen ...beim guns n roses beispiel musste du also 4 saiten am anfang anschlagen
     
  4. Pilot9

    Pilot9 Registrierter Benutzer

    Im Board seit:
    02.10.05
    Zuletzt hier:
    11.04.16
    Beiträge:
    89
    Ort:
    Leipzig
    Zustimmungen:
    1
    Kekse:
    57
    Erstellt: 08.02.06   #4
  5. Ripping Angelflesh

    Ripping Angelflesh Registrierter Benutzer

    Im Board seit:
    11.12.04
    Zuletzt hier:
    16.01.12
    Beiträge:
    1.501
    Ort:
    Bayern
    Zustimmungen:
    2
    Kekse:
    1.040
    Erstellt: 08.02.06   #5
    genau oder einfach die sufu anschmeißen da wirste auch mehr als fündig :great:
     
  6. Maddy

    Maddy Threadersteller Registrierter Benutzer

    Im Board seit:
    20.01.06
    Zuletzt hier:
    20.04.08
    Beiträge:
    61
    Ort:
    Hirsau bei Calw
    Zustimmungen:
    0
    Kekse:
    10
    Erstellt: 08.02.06   #6
    Danke, die Seite hab ich schon gelesen ;) Trotzdem war ich mir nicht sicher ob ich wirklich nur eine Saite anschlagen muss :)

    Danke an alle *g*
     
  7. Fastel

    Fastel Helpful & Friendly User HFU

    Im Board seit:
    11.04.04
    Zuletzt hier:
    29.11.16
    Beiträge:
    5.925
    Ort:
    Tranquility Base
    Zustimmungen:
    565
    Kekse:
    18.025
    Erstellt: 08.02.06   #7
    vorsicht! es gibt auch die sogenannten dead notes. da steht dann ein x an steller der zahl.
     
Die Seite wird geladen...

mapping