Tabs Lesen, wie richtig???? Anfänger

von George, 04.07.04.

  1. George

    George Registrierter Benutzer

    Im Board seit:
    04.07.04
    Zuletzt hier:
    4.07.04
    Beiträge:
    1
    Zustimmungen:
    0
    Kekse:
    10
    Erstellt: 04.07.04   #1
    Hi an alle
    Blutiger Anfänger :eek: hat folgende frage an euch "ALLE PROFIS".....

    Wie lese ich richtig Tabs? Wie werden sie gespielt :confused:

    Beispeil:
    Band : Metallica
    Song : Nothing Else Matters

    Das sollte klar sein, einfach leere Saite anschlagen.....oder? :rolleyes:
    Intro -
    ----------0--------|-----------0--------|-----------0--------|
    -------0-----0-----|--------0-----0-----|--------0-----0-----|
    ----0-----------0--|-----0-----------0--|-----0-----------0--|
    -------------------|--------------------|--------------------|
    -------------------|--------------------|--------------------|
    -0-----------------|--0-----------------|--0-----------------|



    Nu weiter............

    ----------0-----7--|--7--------7p0--------|--------7--8--7h8/5--|--7--5/2-----|
    -------0-----0-----|-----0-----0----0-----|--0-----0--0---------|----------5--|
    ----0--------------|--------0----------0--|-----0---------------|-------------|
    -------------------|----------------------|---------------------|-------------|
    -------------------|----------------------|---------------------|-------------|
    -0-----------------|--0-------------------|--0------------------|-------------|



    WIe wird dieses Stück richtig gelesen/ gedeutet? 7p0 oder 7h8/5

    ----------0-----7--|--7--------7p0--------|--------7--8--7h8/5--|--7--5/2-----|



    Was passiert hier......... :eek:


    ----------------0h5p0------------|---------------12^--------|
    -7--------7------------7p0--0h5--|-----12^--12^-------0-----|
    -7-----7-----7-------------------|-----12^---------------0--| ^ = harmonic
    ---------------------------------|--------------------------|
    -5--5----------------------------|--------------------------|
    ---------------------------------|--0-----------------------|

    0h5p0 und hier 12^ what this :frown: :confused:

    Ich fange gerade mit Gitti an, lacht drum nicht über diese wenig professonellen Fragen, ok?

    Mit welchen Songs sollte man anfangen?
    Habt ihr Tipps, einfache (bekannte) Lieder mit wenig Akkorden und Tabs zum üben?

    Für jede Hilfe bin ich dankbar.
     
  2. Andrew2-strat

    Andrew2-strat Registrierter Benutzer

    Im Board seit:
    21.05.04
    Zuletzt hier:
    7.04.14
    Beiträge:
    118
    Zustimmungen:
    1
    Kekse:
    13
    Erstellt: 04.07.04   #2
    Hallo George

    ( Bist ja eigentlich falsch hier , hättest ins "Tabs & Spieltechniken "
    Forum posten müssen ) aber , ....

    wenn du blutiger Anfänger bist , dann ....

    vergeß den ganzen Tabsch.... , den du hier aufgeführt hast,
    ( zugegebenermaßen hast du dir ja sehr viel Mühe gemacht)...

    und stecke diese Mühen erst einmal in das Erlernen von Grundakkorden.
    Es führt dich zu garnichts , wenn du jetzt wissen willst , wie das gelesen wird.

    Ohne die dafür nötigen Grundkenntnisse bringt das alles nichts.

    Gerade bei " Nothing else matters" ( schau mal in das Forum
    " Tabs & Spieltechniken ) wirst du dann sehen , das das ach soooooo
    schwere Stück auf den Grundakkorden E-Moll - D-Dur -cadd9 - C -Dur - A -Dur
    und Ebdim/B - basiert !
    Das wird dir jetzt genausoviel sagen , wie das lesen von Tabs , oder ?

    Hier stelle ich dir gerne einen Link zu Verfügung , der dir die Akkorde zum
    üben anzeigt.
    http://www.guitargirls.com/chordfinder.htm


    Auch über die einfachen Songs findest du im " Tabs & Spieltechniken " Forum
    einen Thread.


    mfG
     
Die Seite wird geladen...

mapping