Tabs zu Famous - Puddle of Mudd

von DP200X, 08.07.07.

  1. DP200X

    DP200X Registrierter Benutzer

    Im Board seit:
    22.06.07
    Zuletzt hier:
    9.07.09
    Beiträge:
    22
    Zustimmungen:
    0
    Kekse:
    10
    Erstellt: 08.07.07   #1
  2. -Johns-

    -Johns- Registrierter Benutzer

    Im Board seit:
    30.07.07
    Zuletzt hier:
    22.01.13
    Beiträge:
    54
    Zustimmungen:
    0
    Kekse:
    34
    Erstellt: 17.12.07   #2
    Tuning: Db Ab Db Gb Bb Eb

    Key:

    * - Palm Mute
    / - Slide up
    \ - Slide Down
    h - hammer on
    p - pull off

    Intro (Heavy part as Drums come in)

    Eb|-------|
    Bb|-------|
    Gb|-------|
    Db|-------|
    Ab|--33-00|
    Db|--33-00|
    ** **

    "YEA....."
    Eb|------------------------|
    Bb|------------------------|
    Gb|------------------------|
    Db|------------------------|
    Ab|--0-0-0-h5p0-3-3-3-/5p-0|
    Db|--0-0-0-h5p0-3-3-3-/5p-0| 4X


    1st Verse:

    Eb|-----------------------------------------------------------|
    Bb|-----------------------------------------------------------|
    Gb|-----------------------------------------------------------|
    Db|-----------------------------------------------------------|
    Ab|-0-0-0-0-0-0-0-0-0-0-0-0-0-0--3/5-5-5-5-5-5-8-8-8-8-8-8-8-8|
    Db|-0-0-0-0-0-0-0-0-0-0-0-0-0-0--3/5-5-5-5-5-5-8-8-8-8-8-8-8-8| 2X
    * * * * * * * * * * * * * * * *

    Pre-Chorus:
    "You want it You got it..."
    Eb|-------------------------------|
    Bb|-------------------------------|
    Gb|-------------------------------|
    Db|-77/10--77/10--77/10--77/10/12-|
    Ab|-55/8---55/8---55/8---55/8/10--|
    Db|-------------------------------| 1X

    Chorus:
    "I"....."Famous"."Jaded"
    Eb|--------------------------------------|
    Bb|--------------------------------------|
    Gb|--------------------------------------|
    Db|--------------------------------------|
    Ab|-0-00000-8-88888-3-33333-6-6666-5\3p0-|
    Db|-0-00000-8-88888-3-33333-6-6666-5\3p0-|

    Eb|------------------------------------|
    Bb|------------------------------------|
    Gb|------------------------------------|
    Db|------------------------------------|
    Ab|-0-00000-8-88888-3-33333-6-6666-5/3-|
    Db|-0-00000-8-88888-3-33333-6-6666-5/3-|

    "Yea..I wanna Be..."
    Eb|------------------------|
    Bb|------------------------|
    Gb|------------------------|
    Db|------------------------|
    Ab|-0-0-0-h5p0-3-3-3-/5p-0-|
    Db|-0-0-0-h5p0-3-3-3-/5p-0-| 2X

    2nd Verse:
    "..Sleep all day & still get paid"...........do it all over.."
    Eb|-----------------------------------------------------------|
    Bb|-----------------------------------------------------------|
    Gb|-----------------------------------------------------------|
    Db|-----------------------------------------------------------|
    Ab|-0-0-0-0-0-0-0-0-0-0-0-0-0-0--3/5-5-5-5-5-5-8-8-8-8-8-8-8-8|
    Db|-0-0-0-0-0-0-0-0-0-0-0-0-0-0--3/5-5-5-5-5-5-8-8-8-8-8-8-8-8| 2X
    * * * * * * * * * * * * * * * *

    Pre-Chorus:
    "You want it You got it..."
    Eb|-------------------------------|
    Bb|-------------------------------|
    Gb|-------------------------------|
    Db|-77/10--77/10--77/10--77/10/12-|
    Ab|-55/8---55/8---55/8---55/8/10--|
    Db|-------------------------------| 1X

    Chorus:
    "I"....."Famous"."Jaded"
    Eb|--------------------------------------|
    Bb|--------------------------------------|
    Gb|--------------------------------------|
    Db|--------------------------------------|
    Ab|-0-00000-8-88888-3-33333-6-6666-5\3p0-|
    Db|-0-00000-8-88888-3-33333-6-6666-5\3p0-|

    Eb|------------------------------------|
    Bb|------------------------------------|
    Gb|------------------------------------|
    Db|------------------------------------|
    Ab|-0-00000-8-88888-3-33333-6-6666-5/3-|
    Db|-0-00000-8-88888-3-33333-6-6666-5/3-|

    "Yea..I wanna Be..."
    Eb|------------------------|
    Bb|------------------------|
    Gb|------------------------|
    Db|------------------------|
    Ab|-0-0-0-h5p0-3-3-3-/5p-0-|
    Db|-0-0-0-h5p0-3-3-3-/5p-0-| 2X

    Bridge:

    Eb|---------------------------------------|
    Bb|---------------------------------------|}Note: There is a 2nd guitar
    Gb|---------------------------------------| part being played here but I
    Db|---------------------------------------| haven't had a chance to tab
    Ab|-888888888888-10101010-0000000000000000| that part out yet..
    Db|-888888888888-10101010-0000000000000000|

    "When everythings fallen apart..."
    Eb|--------------------------------------------------------------------|
    Bb|--------------------------------------------------------------------|
    Gb|--------------------------------------------------------------------|
    Db|--------------------------------------------------------------------|
    Ab|-8888888888888888-10101010101010101010101010101010-5555555555555555-|
    Db|-8888888888888888-10101010101010101010101010101010-5555555555555555-|

    "You're Dreams..yea."
    Eb|----------------------------|
    Bb|----------------------------|
    Gb|----------------------------|
    Db|----------------------------|
    Ab|-88888888-10101010-12121212-|
    Db|-88888888-10101010-12121212-|

    Outro:

    Guitar Picking patterns similar to the ones in the intro
    being played here but I haven't had a chance to tab them yet.

    Pre-Chorus: (as drums build up)

    "You want it You got it..."
    Eb|--------------------|
    Bb|--------------------|
    Gb|--------------------|
    Db|-77/10--77/10/12\10-|
    Ab|-55/8---55/8/10-\8--|
    Db|--------------------| 1X

    Chorus:
    "I"....."Famous"."Jaded......"
    Eb|--------------------------------------|
    Bb|--------------------------------------|
    Gb|--------------------------------------|
    Db|--------------------------------------|
    Ab|-0-00000-8-88888-3-33333-6-6666-5\3p0-|
    Db|-0-00000-8-88888-3-33333-6-6666-5\3p0-|3X

    Eb|------------------------------------|
    Bb|------------------------------------|
    Gb|------------------------------------|
    Db|------------------------------------|
    Ab|-0-00000-8-88888-3-33333-6-6666-5/3-|
    Db|-0-00000-8-88888-3-33333-6-6666-5/3-| 1X

    "Yea..I wanna Be..."
    Eb|------------------------|
    Bb|------------------------|
    Gb|------------------------|
    Db|------------------------|
    Ab|--0-0-0-h5p0-3-3-3-/5p-0|
    Db|--0-0-0-h5p0-3-3-3-/5p-0| 3X

    Eb|---------------|
    Bb|---------------|
    Gb|---------------|
    Db|---------------|
    Ab|--0-88-55-33-0-|
    Db|--0-88-55-33-0-|
    ** ** ** END.

    musst mal gucken ob die übereinstimmen, weiß es selber nicht bzw. noch nicht ausprobiert.
    viel spass.
     
Die Seite wird geladen...

mapping