Tabs zu Smooth Criminal

von Lou, 02.05.04.

  1. Lou

    Lou Registrierter Benutzer

    Im Board seit:
    13.03.04
    Zuletzt hier:
    22.02.08
    Beiträge:
    374
    Zustimmungen:
    0
    Kekse:
    16
    Erstellt: 02.05.04   #1
    hi

    ich finde nur halbwegs richtige tabs davon , hat vielleicht wer ein tab welches richtig ist ?
    PS: das cover von alien ant farm meine ich.

    Lou
     
  2. Little_Raven

    Little_Raven Registrierter Benutzer

    Im Board seit:
    20.08.03
    Zuletzt hier:
    28.04.10
    Beiträge:
    1.142
    Zustimmungen:
    2
    Kekse:
    1.168
    Erstellt: 02.05.04   #2
    D|-7--|---------------------------------|
    A|-7--|---------------------------------|KA wie oft X
    E|-5--|55553-5-7-7--5-7-8-8--8-7-3--5---|


    D|-3-------55-3-------|
    A|-3-------55-3-------|Ebenfalls ein paar mal
    E|-1-------33-1-------|


    D|-5--5-3-------2------5---5-7-|
    A|-5--5-3-------2------5---5-7-|Garantiert nur ein Durchgang!
    E|-3--3-1-------0------3-0-3-5-|
    0

    D|-7777xx5-5-----5-3-3----3-5-3-5-7--|
    A|-7777xx5-5-----5-3-3----3-5-3-5-7--| zuerst
    E|-5555xx3-3-----3-1-1----1-3-1-3-5--|

    D|-7777xx5-5-----5-3-3----3-2-2-5-7--|
    A|-7777xx5-5-----5-3-3----3-2-2-5-7--| dann
    E|-5555xx3-3-----3-1-1----1-0-0-3-5--|

    Aber das ist doch jetzt nun nicht wirklich schwer raustzhören oder? Wenn du schon sagst, das manche falsch sind, bist du zumindet schon mal nicht taub oder?!
     
  3. Masterfoo

    Masterfoo Registrierter Benutzer

    Im Board seit:
    04.10.03
    Zuletzt hier:
    14.01.07
    Beiträge:
    208
    Zustimmungen:
    0
    Kekse:
    68
    Erstellt: 02.05.04   #3
    Ok Im going to say this because alot of people keep asking me.
    The song is originally in Standard tuning, i even saw it in a
    tab book after posting this that it was in standard. But i enjoy
    playing in drop d and aaf played it in drop d in concert
    (in charlotte,nc) so thats how i wrote it. either way its still
    right, maybe just in a diff tuning. P.S. I added the correct solo!!

    Opening Riff (verse also) *Repeat as needed on all riffs
    E|------------------------------------------
    B|------------------------------------------
    G|------------------------------------------
    D|-7-7-7-7--9-9--9-9--10-10--10-10--7---5--7
    A|-7-7-7-7--9-9--9-9--10-10--10-10--7---5--7
    D|-7-7-7-7--9-9--9-9--10-10--10-10--7---5--7
    P.M.........................................

    Pre-Chorus Riff/End Chorus Riff

    E|-------------------------------------------
    B|-------------------------------------------
    G|-------------------------------------------
    D|-3------5-5-x-3----------------------------
    A|-3-x6---5-5-x-3--repeat--------------------
    D|-3------5-5-x-3----------------------------
    (x# means how many times)

    Chorus
    E|----------------------------------------------------------------------
    B|----------------------------------------------------------------------
    G|----------------------------------------------------------------------
    D|-7-----5-5---5-5-3-3---3-3-5-3-5-7----7----5-5--5-5-3-3---3-3-2-2-5-7-
    A|-7-x6--5-5---5-5-3-3---3-3-5-3-5-7----7-x6-5-5--5-5-3-3---3-3-2-2-5-7-
    D|-7-----5-5---5-5-3-3---3-3-5-3-5-7----7----5-5--5-5-3-3---3-3-2-2-5-7-

    "You've Been Hit By, You've Been Struck by...."
    E|------------------------------------------
    B|------------------------------------------
    G|------------------------------------------
    D|-2-2--------2-----------------------------
    A|-2-2--------2-----------------------------
    D|-2-2--------2-----------------------------

    Solo:
    E|--------------------------------|----------------------------------
    B|--------------------------------|----------------------------------
    G|--5-4---4-----------------------|---5-4---4------------------------
    D|------7---7-5-0-5-7-7-7-5-7-7-7-|-7-----7---7-5-0-5-7-7-7-5-7-7-7--
    A|--------------------------------|----------------------------------
    D|--------------------------------|----------------------------------

    E|----------------------------------|-----------------------------------
    B|----------------------------------|-----------------------------------
    G|----5-4---4-----------------------|----5-4---4------------------------
    D|--7-----7---7-5-0-5-7-7-7-5-7-7-7-|--7-----7---7-5-0-5-7-7-7-5-7-7-7--
    A|----------------------------------|-----------------------------------
    D|----------------------------------|-----------------------------------

    E|--------------------------------|----------------------------------
    B|--------------------------------|----------------------------------
    G|----5-4---4---------------------|----------------------------------
    D|--7-----7---7-5-0-5-7-7-7-7-7-7-|----------------------------------
    A|------------------------------7-|----------------------------------
    D|------------------------------7-|----------------------------------




    Das ist ziemlich cool!
     
Die Seite wird geladen...

mapping