Tabs zu Ukulelen-Highway To Hell

von Jag-Stang, 08.02.05.

  1. Jag-Stang

    Jag-Stang Registrierter Benutzer

    Im Board seit:
    09.10.04
    Zuletzt hier:
    10.01.07
    Beiträge:
    498
    Ort:
    Schweiz
    Zustimmungen:
    0
    Kekse:
    59
    Erstellt: 08.02.05   #1
    hat die jemand??? :)

    ick will spielen :D
     
  2. AlBundy

    AlBundy Registrierter Benutzer

    Im Board seit:
    31.10.04
    Zuletzt hier:
    2.06.08
    Beiträge:
    791
    Ort:
    Stuttgart City
    Zustimmungen:
    0
    Kekse:
    133
    Erstellt: 08.02.05   #2
    suchfunktion wurde schon oft gesucht, soweit ich weiß stimmt stefan die ukulele aber um also nicht auf A,D,F#,H sondern irgendwie verschickt aber such ma ^^

    ahja ukulelen beatles songs:
    http://beatlesite.info/index.html
     
  3. Domo

    Domo Helpful & Friendly User HFU

    Im Board seit:
    31.08.03
    Zuletzt hier:
    20.09.16
    Beiträge:
    10.963
    Zustimmungen:
    77
    Kekse:
    13.607
    Erstellt: 08.02.05   #3
    ich war mal so frei das ganze zu arrangieren. ich glaube ein paar akkorde sind unmöglich zu greifen (hatte noch nie ne ukulele in der hand und kanns nicht beurteilen :o) aber versuchs mal :D

    Code:
    B ||-------------|------------2--2--2--|------------2--2--2--|
    F#||----2--2--2--|------------2--2--0--|------------2--2--0--|
    D ||----1--1--1--|---------------------|---------------------|
    A ||-------------|------------4--4--4--|------------4--4--4--|
    
    
                                                                           
    ----2--2--2----2-------|----------------------||-------------2--2--2--|
    ----2--2--0----2----2--|--2----------2--2--2--||*------------2--2--0--|
    --------------------1--|--1----------1--1--1--||*---------------------|
    ----4--4--4----4-------|----------------------||-------------4--4--4--|
    
    
                                                                         3x
    ------------2--2--2--|----2--2--2----2-------|-----------------------||
    ------------2--2--0--|----2--2--0----2----2--|--2----------2--2--2--*||
    ---------------------|--------------------1--|--1----------1--1--1--*||
    ------------4--4--4--|----4--4--4----4-------|-----------------------||
    
    
                                                                               
    -------------------------|--------------------------|--1---------------6--|
    -------------------------|--------------------------|--2------------0--7--|
    --1----1--1--1--1--1--1--|--1--1--1--1--1--1--1--1--|--1---------------6--|
    --1----1--1--1--1--1--1--|--1--1--1--1--1--1--1--1--|---------------4--4--|
    
    
                                                                          
    --6--6--6----7----6----|------------------6--|--6--6--6----7----6----|
    --7--7--7----7----7----|--6---------------7--|--7--7--7----7----7----|
    --6--6--6----4----6----|--6------------4--6--|--6--6--6----4----6----|
    --4--4--4----4----4----|--6------------4--4--|--4--4--4----4----4----|
    
    
                                                                        
    ------------------6--|--6--6--6----7----6----|------------------6--|
    --6---------------7--|--7--7--7----7----7----|--6---------------7--|
    --6------------4--6--|--6--6--6----4----6----|--6------------4--6--|
    --6------------4--4--|--4--4--4----4----4----|--6------------4--4--|
    
    
                                                                     
    ------------------|---------------------||-------------2--2--2--|
    ------------------|------------2--2--2--||*------------2--2--0--|
    ------------------|------------1--1--1--||*---------------------|
    ------------------|---------------------||-------------4--4--4--|
    
    
                                                                         3x
    ------------2--2--2--|----2--2--2----2-------|-----------------------||
    ------------2--2--0--|----2--2--0----2----2--|--2----------2--2--2--*||
    ---------------------|--------------------1--|--1----------1--1--1--*||
    ------------4--4--4--|----4--4--4----4-------|-----------------------||
    
    
                                                                               
    -------------------------|--------------------------|--1---------------6--|
    -------------------------|--------------------------|--2------------0--7--|
    --1----1--1--1--1--1--1--|--1--1--1--1--1--1--1--1--|--1---------------6--|
    --1----1--1--1--1--1--1--|--1--1--1--1--1--1--1--1--|---------------4--4--|
    
    
                                                                          
    --6--6--6----7----6----|------------------6--|--6--6--6----7----6----|
    --7--7--7----7----7----|--6---------------7--|--7--7--7----7----7----|
    --6--6--6----4----6----|--6------------4--6--|--6--6--6----4----6----|
    --4--4--4----4----4----|--6------------4--4--|--4--4--4----4----4----|
    
    
                                                                        
    ------------------6--|--6--6--6----7----6----|------------------6--|
    --6---------------7--|--7--7--7----7----7----|--6---------------7--|
    --6------------4--6--|--6--6--6----4----6----|--6------------4--6--|
    --6------------4--4--|--4--4--4----4----4----|--6------------4--4--|
    
    
                                                                  
    ------------------|--6--6-----2------6----|------------------|
    ------------------|--7--7--7---------7----|------------------|
    ------------------|--6--6--6--4------6----|------------------|
    ------------------|--4-----4--4------4----|------------------|
    
    
                                                                           
    --6--6-----2------6----|----2----2--6----6----|--------------------6--|
    --7--7--7---------7----|------------7----7----|--6----6----6-------7--|
    --6--6--6--4------6----|----4----4--6----6----|--6----6----6----4--6--|
    --4--4--4--4------4----|----4----4--4----4----|--6----6----6----4--4--|
    
    
                                                                            
    --6--6--6----7----6----|--------------------6--|--6--6--6----7----6----|
    --7--7--7----7----7----|--6----6----6-------7--|--7--7--7----7----7----|
    --6--6--6----4----6----|--6----6----6----4--6--|--6--6--6----4----6----|
    --4--4--4----4----4----|--6----6----6----4--4--|--4--4--4----4----4----|
    
    
                                                                            
    --------------------6--|--6--6--6----7----6----|--------------------6--|
    --6----6----6-------7--|--7--7--7----7----7----|--6----6----6-------7--|
    --6----6----6----4--6--|--6--6--6----4----6----|--6----6----6----4--6--|
    --6----6----6----4--4--|--4--4--4----4----4----|--6----6----6----4--4--|
    
    
                                                                            
    --6--6--6----7----6----|--------------------6--|--6--6--6----7----6----|
    --7--7--7----7----7----|--6----6----6-------7--|--7--7--7----7----7----|
    --6--6--6----4----6----|--6----6----6----4--6--|--6--6--6----4----6----|
    --4--4--4----4----4----|--6----6----6----4--4--|--4--4--4----4----4----|
    
    
                                                              
    --------------------6--|--6--6--6----7----6----|----|----|
    --6----6----6-------7--|--7--7--7----7----7----|----|----|
    --6----6----6----4--6--|--6--6--6----4----6----|----|----|
    --6----6----6----4--4--|--4--4--4----4----4----|----|----|
    
    
                                                                         
    --1----1----1-------6--|----------7----6----|--------------------6--|
    --2----2----2----0--7--|----------7----7----|--6----6----6-------7--|
    --1----1----1-------6--|----------4----6----|--6----6----6----4--6--|
    -----------------4--4--|----------4----4----|--6----6----6----4--4--|
    
    
                                                                            
    --6--6--6----7----6----|--------------------6--|--6--6--6----7----6----|
    --7--7--7----7----7----|--6----6----6-------7--|--7--7--7----7----7----|
    --6--6--6----4----6----|--6----6----6----4--6--|--6--6--6----4----6----|
    --4--4--4----4----4----|--6----6----6----4--4--|--4--4--4----4----4----|
    
    
                                                                               
    --------------------6--|--6--6--6----7----6----|------|--6----------------|
    --6----6----6-------7--|--7--7--7----7----7----|------|--7----------------|
    --6----6----6----4--6--|--6--6--6----4----6----|------|--6----------------|
    --6----6----6----4--4--|--4--4--4----4----4----|------|--4----------------|
    
    
                                                                       
    ------6-----6--6--2----|------------2----------|------------------|
    ------7-----7--7-------|--------2--------------|------------------|
    ------6-----6--6--4----|-----------------------|------------------|
    ------4--4--4--4--4----|------4---4------------|------------------|
    
    
                                                                          
    -------------------|-------------------|-------6------------|-------||
    --2----------------|--2----------------|--2----6------------|-------||
    --1----------------|--1----------------|--1----6------------|--6----||
    -------------------|-------------------|-------6------------|--6----||
    
    
     
  4. AlBundy

    AlBundy Registrierter Benutzer

    Im Board seit:
    31.10.04
    Zuletzt hier:
    2.06.08
    Beiträge:
    791
    Ort:
    Stuttgart City
    Zustimmungen:
    0
    Kekse:
    133
    Erstellt: 08.02.05   #4
    lol ich glaubs nicht:er_what: ich hab insgesamt schon mindestens 2 stunden nach den tabs gesucht , sogar in so nem Ukulen -Forum!! aber nix gefunden wow gleichmal ausprobieren...



    Ahja hat jemand ne idee wie ich aus einer normalen Ukulele eine e-ukulele mache? (möglichst günstig) dazu gabs schonmal nen thread glaub ich
     
  5. Arvir

    Arvir Registrierter Benutzer

    Im Board seit:
    02.10.04
    Zuletzt hier:
    11.05.14
    Beiträge:
    1.161
    Zustimmungen:
    4
    Kekse:
    3.583
    Erstellt: 08.02.05   #5
    Tonabnehmer einbauen?
     
  6. Domo

    Domo Helpful & Friendly User HFU

    Im Board seit:
    31.08.03
    Zuletzt hier:
    20.09.16
    Beiträge:
    10.963
    Zustimmungen:
    77
    Kekse:
    13.607
    Erstellt: 08.02.05   #6
    wohl am einfachsten in dem du einen piezo-kontakt-pickup an deiner ukulele befestigst. so ein ding kannst du dir recht einfach selber basteln, ein handelsüblicher piezo (für ein paar cent im elektrofachhandel) wird einfach irgendwo auf den korpus geklebt, die zwei kontakte des piezos mit einem einfachen vorverstärker verbunden (einen kleinen vorverstärker gibts z.b. bei conrad.de günstig zu kaufen) und dann eine klinkenbuchse. alternativ könntest du dir einen solchen kontakt-tonabnehmer kaufen:

    http://www.netzmarkt.de/thomann/harley_benton_hbt_prodinfo.html?sn=e79c205aad6840a4b888fa41528183be

    dafür klebst du dieses runde plättchen irgendwo auf den korpus und befestigst die klinkenbuchse - schwupps, fertig :D

    die selbstbauvariante wird aber wahrscheinlich besser aussehen, weil man den draht dann schön im inneren des korpus verstauen kann :)
     
  7. Hotroddeville

    Hotroddeville Registrierter Benutzer

    Im Board seit:
    25.09.04
    Zuletzt hier:
    15.04.13
    Beiträge:
    1.534
    Ort:
    Franken
    Zustimmungen:
    0
    Kekse:
    3.015
    Erstellt: 09.06.05   #7
    Sorry das ich den jetzt ausbuddle aber:
    PHP:
    H  |-2-2-2---3-3---0---3-3---0---3-3---0---3---2-2-|
    Fis|-3-3-3---0-0---1---0-0---1---0-0---1---0---3-3-|
    D  |-2-2-2---0-0---0---0-0---0---0-0---0---0---2-2-|
    A  |-0-0-0---0-0---2---0-0---2---0-0---2---0---0-0-|
    [​IMG]
    Hier zum Beispiel E-Uken.
     
  8. Sca

    Sca Registrierter Benutzer

    Im Board seit:
    05.03.04
    Zuletzt hier:
    11.05.16
    Beiträge:
    849
    Zustimmungen:
    2
    Kekse:
    212
    Erstellt: 09.06.05   #8
    ich hab mir jetz auch ne ukulele gekauft ^^ schon lustig. aber da ich ne günstige hab is sie nich stimmstabil und klingt nich so toll. und die bünde sind so verdammt dicht beieinander :D
     
  9. Hotroddeville

    Hotroddeville Registrierter Benutzer

    Im Board seit:
    25.09.04
    Zuletzt hier:
    15.04.13
    Beiträge:
    1.534
    Ort:
    Franken
    Zustimmungen:
    0
    Kekse:
    3.015
    Erstellt: 09.06.05   #9
    Einfach die Schrauben hinten an den Wirbeln fester ziehen, dann müsste es klappen!
     
  10. roastbeef

    roastbeef Registrierter Benutzer

    Im Board seit:
    30.11.03
    Zuletzt hier:
    25.07.16
    Beiträge:
    3.424
    Ort:
    Graz
    Zustimmungen:
    72
    Kekse:
    4.088
    Erstellt: 09.06.05   #10
    und das solo???
    :D
     
  11. San-Jo

    San-Jo Registrierter Benutzer

    Im Board seit:
    07.03.04
    Zuletzt hier:
    30.10.16
    Beiträge:
    1.783
    Ort:
    Neu-Ulm
    Zustimmungen:
    5
    Kekse:
    366
    Erstellt: 10.06.05   #11
    meine e-ukulele, bzw. halbakkustik ukule ist sehr stimmstabil. ist von ovation und ist ein absolut geiles teil!!! klingt megamäßig über den marshall!!! :rock:
     
  12. dumdidum

    dumdidum Registrierter Benutzer

    Im Board seit:
    10.10.03
    Zuletzt hier:
    13.08.13
    Beiträge:
    911
    Ort:
    Hamburg
    Zustimmungen:
    1
    Kekse:
    26
    Erstellt: 10.06.05   #12
    Also bitte, Highway to Hell ist doch nur A-Dur, D-Dur und G-Dur, das müsste man, wenn man sich als Musiker bezeichnet, auch auf Achseltuba können...
     
  13. Hotroddeville

    Hotroddeville Registrierter Benutzer

    Im Board seit:
    25.09.04
    Zuletzt hier:
    15.04.13
    Beiträge:
    1.534
    Ort:
    Franken
    Zustimmungen:
    0
    Kekse:
    3.015
    Erstellt: 10.06.05   #13
    So hab ichs auch getabbt, für Öeite die sich nicht die Mühe machen wollen und Chords zu suchen bzw. zu bilden.
     
  14. arb0r

    arb0r Registrierter Benutzer

    Im Board seit:
    04.10.04
    Zuletzt hier:
    15.12.05
    Beiträge:
    346
    Ort:
    Oberursel bei Frankfurt Main
    Zustimmungen:
    0
    Kekse:
    12
    Erstellt: 12.06.05   #14
    Bei dem Benton ding wirst du sicher auch die Kabel irgendwie in der Ukulele unterbringen können... Ich danke dir auf jeden Fall dafür, ist ne gute Idee die ich vielleicht auch umsetzten will.
     
  15. Olkiboy

    Olkiboy Registrierter Benutzer

    Im Board seit:
    07.06.09
    Zuletzt hier:
    7.06.09
    Beiträge:
    1
    Zustimmungen:
    0
    Kekse:
    10
    Erstellt: 07.06.09   #15
    zum thema e-uke...ich finde, normale sind einfach nich auszuhalten, weil man in der tonlage erzerrt eig nur noch weinen kann...


    das einfachstewar es für meine geniale weniogkeit, ne normale e-gitarre zu nehmen und die mittleren vier saiten umzustimmen... das sind a, d, g, h, und dann muss man halt mit dieser ekelhaften a-d-fis-h stimmung auskommen...problem, das auftrat: klang erbärmlich.

    für die ultraversion, nöämlich die sechssaitige, muss man dann wirklich ein lord sein und seine saiten einzeln zusammenkaufen.

    Das würde ich sogar empfehlen...ist nich so einfach, klingt aber genial...ich hab ewig getüftelt :gruebel:, aber im endeffekt müsste man einfach nur diese saiten einbaun :rolleyes:


    G` - normale A-saite der gitarre
    C` - sehr dicke E-saite
    C" - D-saite
    E" - aus der etwas dicker zu kaufenden G-saite
    A" - aus einer dicken h-oder e-saite, das macht bei der höhe kaum einen unterschied
    A" - ebenso


    und das gibt einfach einen sehr schönen klang :great:
    die griffe sind halt bisschen anzupassen...ich würde sogar empfehlen, weil man für die beiden c´s abertausen d fionger bracuht, oben mit dem daumen rumzuexperimentieren..aber die barrés sind für ukulele einfach übelst praktisch, finger drüber und 3 bünder weiter den ringfinger um die untersten beiden as.

    vllt. konnte ich mit dem diffusen quark sogar einem helfen :) viel spaß
     
Die Seite wird geladen...

mapping