Tabs zu "When september ends" ?

von Lenny, 12.02.05.

  1. Lenny

    Lenny Registrierter Benutzer

    Im Board seit:
    19.08.03
    Zuletzt hier:
    18.03.14
    Beiträge:
    1.115
    Zustimmungen:
    9
    Kekse:
    49
    Erstellt: 12.02.05   #1
    Hallo, ich bin immernoch vergeblich auf der Suche nach dem korrekten Tabs zu gesagtem Green Day Song. Es gibt da immer einige Unstimmigkweiten bei meinem Gehör, zu dem was da steht und was gespielt wird. Siehe weiter untem in dem Tabs.


    Intro:
    e|---------------------------------------------------------|
    B|------3-----3-------3-----3-------3-----3-------3-----3--|
    G|----0-----0-------0-----0-------0-----0-------0-----0----|
    D|--5-----5-------5-----5-------5-----5-------5-----5------|
    A|---------------------------------------------------------|
    E|---------------------------------------------------------|


    Riff 1:
    e|---------------------------------------------------------|
    B|------3-----3-------3-----3-------3-----3-------3-----3--|
    G|----0-----0-------0-----0-------0-----0-------0-----0----|
    D|--5-----5-------4-----4-------2-----2-------0-----0------|
    A|---------------------------------------------------------|
    E|---------------------------------------------------------|

    e|------3-----3-------3-----3----|
    B|------5-----5-------4-----4----|
    G|----5-----5---5---5-----5---5--|
    D|--5-----5-------5-----5--------|
    A|-------------------------------|
    E|-------------------------------|

    Stimmt so nicht. es ist nicht 5 5 auf Saite 4 und 3, sondern 3 5 auf Saite 5 und 4.


    Ending 1:
    e|------------------------------|
    B|------3-----3-------3-----3---|
    G|----0-----0---0---0-----0---0-|
    D|--5-----5-------5-----5-------|
    A|------------------------------|
    E|------------------------------|

    Bei diesem Part sind im Lied eindeutig tiefere Töne zu hören




    Ending 2:
    e|-----------------------------------|
    B|------3-----3-------3-------3------|
    G|----0-----0---0---0---0---0--0-----|
    D|--5-----5-------5-------4----------|
    A|-----------------------------------|
    E|-----------------------------------|

    Auch hier hört man definitiv die tiefe E Seite mit dem 3. bzw 2. Bund, entsprechend den Stellen wo in dem Tabs 555 und 4 stehen.



    Riff 2:
    e|------------------------------------------------------------|
    B|------3-----3-------3-----3-------3-----3-------3-------3---|
    G|----0-----0---0---0-----0---0---0-----0---0---0---0---0--0--|
    D|--2-----2-----------------------------------5-------4-------|
    A|----------------2-----2-------3-----3-----------------------|
    E|------------------------------------------------------------|

    e|------------------------------------------------------------|
    B|------3-----3-------3-----3-------3-----3-------3-----3-----|
    G|----0-----0---0---0-----0---0---0-----0-------0-----0---0---|
    D|--2-----2-----------------------------------0-----0---------|
    A|----------------2-----2-------3-----3-----------------------|
    E|------------------------------------------------------------|

    Auch bei Riff 2 ist die E-Saite irgendwie mitbeteiligt.


    Riff 3:
    e|---------------------------------------------------------|
    B|------3-----3-------3-----3-------3-----3-------3-----3--|
    G|----0-----0-------0-----0-------0-----0-------0-----0----|
    D|--5-----5-------4-----4-------2-----2-------0-----0------|
    A|---------------------------------------------------------|
    E|---------------------------------------------------------|


    Naja ok und der Refrain ist verzerrt eh schwer rauszuhören also welche Seiten von B bzw G Akkord gleichzeitig gespielt werden. (das sind jetzt Tabs die ich von ner anderen Seite habe, kenne den Rest aber, will aber nicht alles hier reinschreiben). Sind halt nur ein paar Beispiele.
    Gibts dazu evtl n Songbook wo die richtigen Tabs drin sind ?
    Bitte nicht einfach irgendwelche Tabsammlungen reinlinken ohne nachzusehen, den es sind halt viele falsche im Umlauf.
     
Die Seite wird geladen...

mapping