[Tabsuche] Silbermind - Symphonie

von AustrianCoder, 06.01.05.

  1. AustrianCoder

    AustrianCoder Registrierter Benutzer

    Im Board seit:
    23.11.04
    Zuletzt hier:
    5.12.15
    Beiträge:
    34
    Zustimmungen:
    0
    Kekse:
    10
    Erstellt: 06.01.05   #1
    Hallo.

    Ich bin auf der Suche nach den Tabs.. hab schon Google gefragt, doch hat mir leider nichts geliefert. Evt kann mir jemand helfen?!


    Danke,
    AC
     
  2. kaylee174

    kaylee174 Registrierter Benutzer

    Im Board seit:
    23.01.04
    Zuletzt hier:
    19.02.16
    Beiträge:
    381
    Zustimmungen:
    0
    Kekse:
    10
    Erstellt: 06.01.05   #2
    Meinste wohl silbermond, guckst du mal hier: http://www.lyricsarchiv.de/

    sind zwar nur die akkorde angegeben, aber ich denke, den rest kann man raushören.
     
  3. AustrianCoder

    AustrianCoder Threadersteller Registrierter Benutzer

    Im Board seit:
    23.11.04
    Zuletzt hier:
    5.12.15
    Beiträge:
    34
    Zustimmungen:
    0
    Kekse:
    10
    Erstellt: 06.01.05   #3
    Hab da ein Problem... kann die Seite nicht ansurfen... da scheint mein ISP was zu blocken.
    Wärst du evt so nett, die Akkorde hier rein zu kopieren?
     
  4. Cypher

    Cypher Registrierter Benutzer

    Im Board seit:
    10.06.04
    Zuletzt hier:
    30.10.14
    Beiträge:
    829
    Zustimmungen:
    3
    Kekse:
    54
  5. AustrianCoder

    AustrianCoder Threadersteller Registrierter Benutzer

    Im Board seit:
    23.11.04
    Zuletzt hier:
    5.12.15
    Beiträge:
    34
    Zustimmungen:
    0
    Kekse:
    10
    Erstellt: 07.01.05   #5
  6. s!d

    s!d Registrierter Benutzer

    Im Board seit:
    02.10.04
    Zuletzt hier:
    17.11.16
    Beiträge:
    1.724
    Ort:
    Mainz
    Zustimmungen:
    18
    Kekse:
    3.080
    Erstellt: 17.01.05   #6
    kann es sein das die von lyricsarchiv nich die richtige tonlage sind? passt nämlich überhaupt nich! suche auch schon verzweifelt...
    kann auch sein das die gitarre umgestimmt werden muss...
     
  7. AustrianCoder

    AustrianCoder Threadersteller Registrierter Benutzer

    Im Board seit:
    23.11.04
    Zuletzt hier:
    5.12.15
    Beiträge:
    34
    Zustimmungen:
    0
    Kekse:
    10
    Erstellt: 17.01.05   #7
    So habe hier mal was ganz Schönes :) Kommt net von mir, aber ich hoff es ist ok, wenn ich es hier poste.

    -----------------------------------------------------------------------------
    SYMPHONIE - Silbermond
    -----------------------------------------------------------------------------
    Tabbed by: Gitarrensolo Stefan Guenter
    Email: info@schnucki.org

    Tuning: E A D G B E (capo on first fret) the tab is optimized for capo1 ;)

    e|----0---------------------0------------------------------------------------
    B|------3--------3------------3----------3----------3----------3---------3---
    G|--0-----0----0---0------0-----0------0---0------0---0------0---0-----0---0-
    D|-------------------0-----------------------0-------------------------------
    A|----------------------------------------------2----------1---------0-------
    E|3----------3----------2------------2---------------------------------------

    e|----------0------------------------------2-2-------2-3---------------------
    B|---3--------3-----------3-------3-------3----3----3----2-------------------
    G|--0-----0-----0h2-----0---0---0---0----0-------0-0-------0-----------------
    D|-0----------------------------------0-0------------------------------------
    A|0-----3--------------------------------------------------------------------
    E|--------------------3-------3----------------------------------------------

    e|--2------2------1-1------1-2-----------------------------------------------
    B|---2----2-2----2---2----2---2----------3----------3----------3---------3---
    G|----0--0---0--0-----0--0-------------0---0------0---0------0---0-----0---0-
    D|-------------0--------0--------------------0----------0--------------------
    A|2-----2-----------------------0h2-3-----------2----------1---------0-------
    E|0--------------------------------------------------------------------------

    G4 D
    \ \ \ / \ \ / \ \ / \ / \ \ / \ / 0
    e|-------------0---------3--3--3-----3--3-----3--3--3--------3--3--3--2--3---
    B|-2-----2----2-2--------3--3--3-----3--3-----3--3--3--------3--3--3--3--3---
    G|-2---0---0-0---0h2-0---0--0--0-----0--0-----0--0--0--------0--0--0--0--0---
    D|-2---------------------0--------------------------------0------------------
    A|-2-2-------------------2--------2--------2-----------2--0------------------
    E|-----------------------3--------3--------3-----------3--1------------------

    e|---------------------------------------------------------------------------
    B|---------------------------------------------------------------------------
    G|---------------------------------------------------------------------------
    D|---------------------------------------------------------------------------
    A|---------------------------------------------------------------------------
    E|---------------------------------------------------------------------------

    e
    | / slide up
    | \ slide down
    | h hammer-on
    | p pull-off
    | ~ vibrato
    | + harmonic
    | x Mute note
    ===============================================================================


    Es wäre schön, wenn wir auf Grundlage von den unfertigen Tabs, das ganze Lied herbekommen könnten.
     
  8. s!d

    s!d Registrierter Benutzer

    Im Board seit:
    02.10.04
    Zuletzt hier:
    17.11.16
    Beiträge:
    1.724
    Ort:
    Mainz
    Zustimmungen:
    18
    Kekse:
    3.080
    Erstellt: 17.01.05   #8
    sehr schön! vielen dank schonmal für den anfang^^
    nur so als hinweis: das is die akkustik version! (auf dem album die vorletzte nummer, glaub ich). aber auch seeeehhr geil. also vielen dank! hoffe wir kriegens zusammen... :great:
     
  9. s!d

    s!d Registrierter Benutzer

    Im Board seit:
    02.10.04
    Zuletzt hier:
    17.11.16
    Beiträge:
    1.724
    Ort:
    Mainz
    Zustimmungen:
    18
    Kekse:
    3.080
    Erstellt: 18.01.05   #9
    habs mal so gut es ging als powertab verarbeitet. musste einiges ändern und bin aber nich fertig geworden. sind nur die ersten 25 sek des liedes. is mein erstes tab... hörts euch mal an und ergänzt. denke mal könnten das schaffen.

    ps: ich glaub die letzten beiden strums sind falsch. im video macht ers irgendwie anders..

    hab kein .rar oder .zip, benutze winace. wer den anfang haben will, soll mir seine emali geben, dann schick ichs!
     
  10. Lenny

    Lenny Registrierter Benutzer

    Im Board seit:
    19.08.03
    Zuletzt hier:
    18.03.14
    Beiträge:
    1.115
    Zustimmungen:
    9
    Kekse:
    49
    Erstellt: 22.01.05   #10
    gehts jetzt um die studio oder um die backstage version (bonus track) ?
     
  11. thommy

    thommy Registrierter Benutzer

    Im Board seit:
    25.03.04
    Zuletzt hier:
    24.11.11
    Beiträge:
    4.586
    Ort:
    its better to burn out than to fade away ?? ...
    Zustimmungen:
    10
    Kekse:
    1.456
    Erstellt: 22.01.05   #11
    Symphonie

    Silbermond



    B

    Sag mir was ist bloß um uns geschehn

    Gm

    Du scheinst mir auf einmal völlig fremd zu sein

    D#

    Warum geht´s mir nicht mehr gut

    Dm

    Wenn ich in deinen Armen liege

    Cm

    Ist es egal geworden was mit uns passiert



    B

    Wo willst du hin ich kann dich kaum noch sehn

    Gm

    Unsere Eitelkeit stellt sich uns in den Weg

    D#

    Wollten wir nicht alles wagen

    Dm

    haben uns vielleicht verraten

    Cm F

    Ich hab geglaubt wir könnten echt alles ertragen





    Ref:

    B

    Symphonie

    F

    Und jetzt wird es still um uns

    Gm Dm

    Denn wir steh´n hier im Regen haben nicht´s mehr zu geben

    D# D#/D Cm

    Und es ist besser wenn du gehst

    B

    Denn es ist Zeit

    F

    Sich einzugestehn dass es nicht geht

    Gm Dm

    Es gibt nichts mehr zu reden denn wenn es regnet

    D# D#/D Cm

    Ist es besser aufzugeben





    Und es verdichtet sich die Stille über uns

    Ich versteh nicht ein Wort mehr aus deinem Mund

    Haben wir zu viel versucht

    warum konnten wir´s nicht ahnen

    Es wird nicht leicht sein das alles einzusehn





    Ref:

    Symphonie

    Und jetzt wird es still um uns

    Denn wir steh´n hier im Regen haben nicht´s mehr zu geben

    Und es ist besser wenn du gehst

    Denn es ist Zeit

    Sich ein zu gestehn dass es nicht geht

    Es gibt nichts mehr zu reden denn wenn es regnet

    Ist es besser aufzugeben



    D#

    Irgendwo sind wir gescheitert

    B

    Und so wie´s ist so geht´s nich weiter

    Cm

    Das Ende ist schon lang geschrieben

    (F)

    Und das war unsre....





    Ref:

    Symphonie

    Und jetzt wird es still um uns

    Denn wir steh´n hier im Regen haben nicht´s mehr zu geben

    Und es ist besser wenn du gehst

    Denn es ist Zeit

    Sich ein zu gestehn dass es nicht geht

    Es gibt nichts mehr zu reden denn wenn es regnet



    ------------------------------

    `&'

    #

    # www.guitarsongs.de

    _#_ Webmaster@guitarsongs.de

    ( # )

    / O \ Bearbeitet und gepostet

    ( === ) von TOM thomas.liechti@ubs.com

    `---'


    :mad: wenn der blöde editor hier net immer alles zusammenziehen würde...

    hier der link

    http://www.mannyffm.de/songs3/symphonie_silbermond.htm
     
  12. AustrianCoder

    AustrianCoder Threadersteller Registrierter Benutzer

    Im Board seit:
    23.11.04
    Zuletzt hier:
    5.12.15
    Beiträge:
    34
    Zustimmungen:
    0
    Kekse:
    10
    Erstellt: 22.01.05   #12
    Es geht um die Backstage-Version! V.a. um die Tabs und nicht um die Chrode!
     
  13. s!d

    s!d Registrierter Benutzer

    Im Board seit:
    02.10.04
    Zuletzt hier:
    17.11.16
    Beiträge:
    1.724
    Ort:
    Mainz
    Zustimmungen:
    18
    Kekse:
    3.080
    Erstellt: 22.01.05   #13
    @austrian coder:
    stimmen die powertabs am anfang überein?

    @thommy:
    das sind die selben chords wie die auf lyricsarchiv. und die stimmen nich...
     
  14. thommy

    thommy Registrierter Benutzer

    Im Board seit:
    25.03.04
    Zuletzt hier:
    24.11.11
    Beiträge:
    4.586
    Ort:
    its better to burn out than to fade away ?? ...
    Zustimmungen:
    10
    Kekse:
    1.456
    Erstellt: 22.01.05   #14
    meinste ?

    Die passen sehr wohl.
    Zumindest auf meine Version vom Album.
    Und Tabs brauchste für das Lied ja wirklich nicht
     
  15. s!d

    s!d Registrierter Benutzer

    Im Board seit:
    02.10.04
    Zuletzt hier:
    17.11.16
    Beiträge:
    1.724
    Ort:
    Mainz
    Zustimmungen:
    18
    Kekse:
    3.080
    Erstellt: 22.01.05   #15
    du meinst doch dann bestimmt die onstage-version oder? oder meinst du die, die mit klavier begleitet wird? (scheiße, sovile versionen..)
    und tabs bracuchen wir halt für die backstage-version..

    edit:
    habs grad nochmal mit der "normalen" version ausprobiert (also keiner von den bonus-tracks), hört sich schon besser an, aber der B hört sich nix an... also irgnedwie passt des immer noch net...
     
Die Seite wird geladen...

mapping