Take Five Bassrhythmus

von Martin Wagner, 23.01.05.

  1. Martin Wagner

    Martin Wagner Registrierter Benutzer

    Im Board seit:
    21.12.04
    Zuletzt hier:
    19.06.06
    Beiträge:
    54
    Ort:
    Ravensburg
    Zustimmungen:
    0
    Kekse:
    10
    Erstellt: 23.01.05   #1
    Hallo,

    kennt jemand von euch den genauen Tonlaut der Bassbegleitung von Take Five? Hier hat es Ede-Wolf auf dem Bass eingespielt: https://www.musiker-board.de/vb/showthread.php?t=32550

    Die Tabs für die Melodiestimme habe ich, aber woraus besteht die durchgehende Begleitung (ich möchte die Begleitung auf der Gitarre spielen)?

    Ich würde mich freuen, wenn einer von euch das wüsste.
    Vielen Dank,
    Martin
     
  2. Domo

    Domo Helpful & Friendly User HFU

    Im Board seit:
    31.08.03
    Zuletzt hier:
    20.09.16
    Beiträge:
    10.963
    Zustimmungen:
    77
    Kekse:
    13.607
    Erstellt: 23.01.05   #2
    Code:
    E||------0-------0---------------||
    B||------0-------0---------------||
    G||*-----0-------0---------7----*||
    D||*-----------------------7----*||
    A||------------------------9-----||
    E||---0-------0-------7----------||
    
    :)
     
  3. Martin Wagner

    Martin Wagner Threadersteller Registrierter Benutzer

    Im Board seit:
    21.12.04
    Zuletzt hier:
    19.06.06
    Beiträge:
    54
    Ort:
    Ravensburg
    Zustimmungen:
    0
    Kekse:
    10
    Erstellt: 23.01.05   #3
    Einfacher als ich dachte, danke :great:
     
  4. harvi

    harvi Registrierter Benutzer

    Im Board seit:
    18.08.03
    Zuletzt hier:
    6.12.07
    Beiträge:
    740
    Ort:
    Darmstadt
    Zustimmungen:
    2
    Kekse:
    159
    Erstellt: 23.01.05   #4
    oder auch so wie ich es spiele

    ----------0----------0------------------------------
    ----------0----------0----------0------ 3-----------
    ----------0----------0------------------2-----------
    ----------------2-----------------------4-----------
    --------------------------------2---0---2-----------
    -----0----------------------------------------------
     
Die Seite wird geladen...

mapping