Technikfrage bei AC/DC-solo (whole lotta rosie)

von Jailbreak-Jack, 30.07.07.

  1. Jailbreak-Jack

    Jailbreak-Jack Registrierter Benutzer

    Im Board seit:
    27.07.07
    Zuletzt hier:
    27.08.14
    Beiträge:
    72
    Ort:
    München (Pfaffenhofen)
    Zustimmungen:
    0
    Kekse:
    45
    Erstellt: 30.07.07   #1
    Moin Moin

    Hab mal ne frage ...ich komm da einfach nicht weiter
    ich spiele (oder versuche es) grad das Solo von Whole lotta rosie (AC/DC).
    Die Problematik ligt bei mir bei dem ersten großen lauf (bei 2:26 Min) :

    E:|------------5--5-------5---------------------------------------------|
    B:|---8b10-------------------8-5-5-5----------------------------------|
    G:|----------------------------------------7--5------7------5--7--5----|
    D:|-----------------------------------------------7------7--------------|
    A:|----------------------------------------------------------------------|
    E:|----------------------------------------------------------------------|


    E:|-------------------------------------------------------------------|
    B:|-------------------------------------------------------------------|
    G:|------5-----------------------------------------------------------|
    D:|---7-----7----------7---5---5---5---5-----5b7---5b7---5s0----|
    A:|-------------5--7-------------------------------------------------|
    E:|-------------------------------------------------------------------|


    Meine Frage dazu:
    werden hier mit dem Zeigefinger auf dem 5ten Bund die Seiten D,G,B,E abgedeckt und mit dem Ring- und Kleinen Finger die anderen Töne gespielt oder werden alle Töne einzeln gegriffen??

    Was is sinnvoller??

    ich hab bis jetzt alle einzeln gegriffen - schafs aber dann von der Geschwindigkeit her ned


    Also: Falsche Taktik oder muss ich einfach nur solang üben bis ich schneller werd?? :confused:

    Würde mich um hilfe sehr freuen :cool:

    Gruß

    Max
     
  2. rübchen

    rübchen Registrierter Benutzer

    Im Board seit:
    12.07.07
    Zuletzt hier:
    2.12.16
    Beiträge:
    359
    Zustimmungen:
    24
    Kekse:
    441
    Erstellt: 30.07.07   #2
    das ist eigentlich eine dumme frage...es ist das für dich sinnvoller, was du eben am sinnvollsten erachtest, bzw. womit du in diesem solo am besten klarkommst. die geschwindigkeit musst du trainieren die ist nicht einfach da, langsam angehen:great:
     
  3. Jailbreak-Jack

    Jailbreak-Jack Threadersteller Registrierter Benutzer

    Im Board seit:
    27.07.07
    Zuletzt hier:
    27.08.14
    Beiträge:
    72
    Ort:
    München (Pfaffenhofen)
    Zustimmungen:
    0
    Kekse:
    45
    Erstellt: 30.07.07   #3
    Also machts quasi jeder so wies ihm am besten taugt
    dacht ich mir fast :-D
    wobei ich denke das das mit dem zeigefinger liegen lassen fast schneller geht

    aber danke schonmal

    Max
     
Die Seite wird geladen...

mapping