The Police- Every Breath you take?! Tabs

von chrisne84, 13.06.05.

  1. chrisne84

    chrisne84 Registrierter Benutzer

    Im Board seit:
    06.10.03
    Zuletzt hier:
    26.09.07
    Beiträge:
    131
    Ort:
    Berlin-Schmargendorf
    Zustimmungen:
    0
    Kekse:
    33
    Erstellt: 13.06.05   #1
    Hallo Leute,

    ich möchte gerne das oben genannte Lied spielen und habe auch schon recht gute tabs gefunden. Bei diesen Tabs muss ich mir aber leider fast meine Finger brechen und meine Hand auskukeln. Ich wollte fragen, ob es noch einfachere Tabs bzw. eine Version mit anderem Tuning gibt, damit es einfach ist.

    Danke und Gruss

    Chris
     
  2. Stringgod

    Stringgod HCA Gitarre HCA

    Im Board seit:
    31.08.04
    Zuletzt hier:
    30.12.14
    Beiträge:
    2.111
    Ort:
    Essen
    Zustimmungen:
    4
    Kekse:
    2.130
    Erstellt: 13.06.05   #2
    Du kannst das einfach n halbe Ton höher spielen, dann kannst du den 1. Akkord mit Leersaiten spielen und der 2. Akkord wäre dann im 2. Bund

    Code:
    Aadd9
    
    0------------
    ---2---------
    ------4------
    ---2---------
    0------------
    x------------
    
    F#madd9
    
    --2----------
    --2----------
    --2----------
    --------6----
    -----4-------
    --2----------
     
  3. kox

    kox Registrierter Benutzer

    Im Board seit:
    24.11.03
    Zuletzt hier:
    2.08.06
    Beiträge:
    290
    Zustimmungen:
    0
    Kekse:
    39
    Erstellt: 14.06.05   #3
    Oder du spielst es nen halben Ton tiefer, dann ist alles offen!
    Ich habs jetzt mal aus dem Kopf gemacht, kann sein, daß die
    Verteilung nicht ganz stimmt, aber die ungefähren Akkorde kommen
    ja rüber :)

    Code:
    
    G2
    E-----------------
    B---------0-------
    G-----2-----2---2-
    D---0---0-----0---
    A-----------------
    E-3---------------
    
    Em2
    E-----------------
    B-----------------
    G---------0-------
    D-----4-----4---4-
    A---2---2-----2---
    E-0---------------
    
    
    C2
    E-----0-----------
    B---------3-1---1-
    G---0---0-----0---
    D-----------------
    A-3---------------
    E-----------------
    
    D2
    E-----2---0-------
    B-----------3---3-
    G---2---2-----2---
    D-0---------------
    A-----------------
    E-----------------
    
    
     
  4. radlroller

    radlroller Registrierter Benutzer

    Im Board seit:
    12.07.05
    Zuletzt hier:
    16.10.05
    Beiträge:
    26
    Zustimmungen:
    0
    Kekse:
    37
    Erstellt: 13.07.05   #4
    stimm einfach deine Gitarre tiefer, dann ists leichter greifen
    (so wie unten )

    F#madd9

    --2----------
    --2----------
    --2----------
    -----4------
    -----4-------
    --2----------
    so stehts jedenfalls in meinem Gitarrenlehrbuch drin
    mfg :cool:
     
Die Seite wird geladen...

mapping