The Strokes - Last Nite

von Punka, 21.06.07.

  1. Punka

    Punka Registrierter Benutzer

    Im Board seit:
    30.08.06
    Zuletzt hier:
    22.09.16
    Beiträge:
    3.115
    Ort:
    Bielefeld
    Zustimmungen:
    44
    Kekse:
    3.486
    Erstellt: 21.06.07   #1
    Hi,

    kann mir vielleicht jemand weiterhelfen? Ich suche eine (richtige!) Version des Strokes Songs "Last Night", oder auch Nite geschrieben. Leider finde ich auf allen größeren Tabs Seiten nur miese Tabs zum Song, in denen vor allem dieser besonders coole Basslauf nach spätestens zwei Takten falsch getabbt ist.

    Wer kann helfen? ^^

    Oder kann das sogar jemand hier selbst raushören? Ich glaube so schwer ists gar nicht.
     
  2. Tobbse

    Tobbse Registrierter Benutzer

    Im Board seit:
    10.12.05
    Zuletzt hier:
    5.03.12
    Beiträge:
    698
    Ort:
    Hemer
    Zustimmungen:
    2
    Kekse:
    597
    Erstellt: 21.06.07   #2
    wenn's so schwer nicht ist, warum versuchst du's nicht mal selbst? wär doch'n exelenter zeitpunkt, das heraushören an einem einfachen lied mal zu versuchen!
     
  3. Punka

    Punka Threadersteller Registrierter Benutzer

    Im Board seit:
    30.08.06
    Zuletzt hier:
    22.09.16
    Beiträge:
    3.115
    Ort:
    Bielefeld
    Zustimmungen:
    44
    Kekse:
    3.486
    Erstellt: 21.06.07   #3
    warum wusste ich, dass, anstatt einem hilfreichen posting, sowas kommt? *tired*
     
  4. Tobbse

    Tobbse Registrierter Benutzer

    Im Board seit:
    10.12.05
    Zuletzt hier:
    5.03.12
    Beiträge:
    698
    Ort:
    Hemer
    Zustimmungen:
    2
    Kekse:
    597
    Erstellt: 22.06.07   #4
    was hast du anderes erwartet, wenn du es nicht mal selbst versuchst sondern gleich von anderen verlangst es herauszuhören, mit der motivation dass es ja leicht sei... tsts
    aber damit es nicht zu sehr OT wird: bei word einfügen und die schriftart "courier new" benutzen (und vllt einen kleineren schriftgrad) dann ist es wieder richtig eingerückt)

    Last Night


    The Strokes



    G||-------|-------|-------|-------|-------|-------|-------|-------|
    D||-------|-------|-------|-------|-------|-------|-------|-------|
    A||-------|-------|-------|-------|-------|-------|-------|-------|
    E||-------|-------|-------|-------|-------|-------|-------|-------|


    E E E E E E E E E E E E E E E E
    --------------------------|----------------------------------|
    --------------------------|----------------------------------|
    --8--8--8--8--8--8--8--8--|--10--10--10--10--10--10--10--10--|
    --------------------------|----------------------------------|


    E E E E E E E E E E E E E E E E
    --------------------------|-----------------------------------|
    --------------------------|-----------------------------------|
    --8--8--8--8--8--8--8--8--|--10--10--10--10--10--10--10--10\--|
    --------------------------|-----------------------------------|


    Q. S S S S Q. Q. S S S S Q. Q. S S S S Q.
    ------------------------|------------------------|-------------------------|
    ------------------------|------------------------|-------------------------|
    --3--------3---3-3------|--3--------3---3-3------|--5--------5---5-5S------|
    ------------------------|------------------------|-------------------------|


    ^
    H. E E Q. E H Q. S S S S Q.
    -----------------------|---------------------|------------------------|
    -----------------------|---------------------|------------------------|
    --10------------L--10--|--7------7--5--------|--3--------3---3-3------|
    -----------------------|---------------------|------------------------|


    ^
    Q. S S S S E S S E Q. S S S S Q. H. E E
    ----------------------------|-------------------------|-----------------------|
    ----------------------------|-------------------------|-----------------------|
    --3--------3---3-3-------3--|--5--------5---5-5S------|--10------------L--10--|
    --------------------3h-5----|-------------------------|-----------------------|


    Q. E H Q. S S S S E S S E Q. S S S S E S S E
    ---------------------|----------------------------|----------------------------|
    ---------------------|----------------------------|----------------------------|
    --7------7--5--------|--3--------3---3-3-------3--|--3--------3---3-3-------3--|
    ---------------------|--------------------3h-5----|--------------------3h-5----|


    ^
    Q. S S S S Q. H. E E Q. E H
    -------------------------|-----------------------|---------------------|
    -------------------------|-----------------------|---------------------|
    --5--------5---5-5S------|--10------------L--10--|--7------7--5--------|
    -------------------------|-----------------------|---------------------|


    E E E E E E E E E E E E E E E E
    --------------------------|----------------------------------|
    --------------------------|----------------------------------|
    --8--8--8--8--8--8--8--8--|--10--10--10--10--10--10--10--10--|
    --------------------------|----------------------------------|


    E E E E E E E E E E E E E E E E
    --------------------------|----------------------------------|
    --------------------------|----------------------------------|
    --8--8--8--8--8--8--8--8--|--10--10--10--10--10--10--10--10--|
    --------------------------|----------------------------------|


    E E E E E E E E E E E E E E E E
    --------------------------|----------------------------------|
    --------------------------|----------------------------------|
    --8--8--8--8--8--8--8--8--|--10--10--10--10--10--10--10--10--|
    --------------------------|----------------------------------|


    E E E E E E E E E E E E E E E E
    --------------------------|-----------------------------------|
    --------------------------|-----------------------------------|
    --8--8--8--8--8--8--8--8--|--10--10--10--10--10--10--10--10\--|
    --------------------------|-----------------------------------|


    Q. S S S S Q. Q. S S S S E S S E Q. S S S S Q.
    ------------------------|----------------------------|-------------------------|
    ------------------------|----------------------------|-------------------------|
    --3--------3---3-3------|--3--------3---3-3-------3--|--5--------5---5-5S------|
    ------------------------|--------------------3h-5----|-------------------------|


    ^
    H. E E Q. E H Q. S S S S Q.
    -----------------------|---------------------|------------------------|
    -----------------------|---------------------|------------------------|
    --10------------L--10--|--7------7--5--------|--3--------3---3-3------|
    -----------------------|---------------------|------------------------|


    ^
    Q. S S S S E S S E Q. S S S S Q. H. E E
    ----------------------------|-------------------------|-----------------------|
    ----------------------------|-------------------------|-----------------------|
    --3--------3---3-3-------3--|--5--------5---5-5S------|--10------------L--10--|
    --------------------3h-5----|-------------------------|-----------------------|


    Q. E H E E E E E E E E
    ---------------------|-----------|-----------|--------------------------|
    ---------------------|-----------|-----------|--------------------------|
    --7------7--5--------|-----------|-----------|--8--8--8--8--8--8--8--8--|
    ---------------------|-----------|-----------|--------------------------|


    E E E E E E E E E E E E E E E E
    ----------------------------------|--------------------------|
    ----------------------------------|--------------------------|
    --10--10--10--10--10--10--10--10--|--8--8--8--8--8--8--8--8--|
    ----------------------------------|--------------------------|


    E E E E E E E E E E E E E E E E
    -----------------------------------|--------------------------|
    -----------------------------------|--------------------------|
    --10--10--10--10--10--10--10--10\--|--3--3--3--3--3--3--3--3--|
    -----------------------------------|--------------------------|


    E E E E E E E E E E E E E E E E
    --------------------------|--------------------------|
    --------------------------|--------------------------|
    --3--3--3--3--3--3--3--3--|--------------------------|
    --------------------------|--1--1--1--1--1--1--1--1--|


    E E E E E E E E E E E E E E E E
    --------------------------|--------------------------|
    --------------------------|--------------------------|
    --------------------------|--------------------------|
    --1--1--1--1--1--1--1--1--|--3--3--3--3--3--3--3--3--|


    E E E E E E E E E E E E E E E E
    --------------------------|--------------------------|
    --------------------------|--------------------------|
    --------------------------|--8--8--8--8--8--8--8--8--|
    --3--3--3--3--3--3--3--3--|--------------------------|


    E E E E E E E E E E E E E E E E
    ----------------------------------|--------------------------|
    ----------------------------------|--------------------------|
    --10--10--10--10--10--10--10--10--|--8--8--8--8--8--8--8--8--|
    ----------------------------------|--------------------------|


    E E E E E E E E E E E E E E E E
    ----------------------------------|--------------------------|
    ----------------------------------|--------------------------|
    --10--10--10--10--10--10--10--10--|--8--8--8--8--8--8--8--8--|
    ----------------------------------|--------------------------|


    E E E E E E E E E E E E E E E E
    ----------------------------------|--------------------------|
    ----------------------------------|--------------------------|
    --10--10--10--10--10--10--10--10--|--8--8--8--8--8--8--8--8--|
    ----------------------------------|--------------------------|


    E E E E S E. Q Q. S S S S Q.
    ------------------------------|------------------------|
    ------------------------------|------------------------|
    --10--10--10--10--10----------|--3--------3---3-3------|
    ------------------------------|------------------------|


    ^
    Q. S S S S Q. Q. S S S S Q. H. E E
    ------------------------|-------------------------|-----------------------|
    ------------------------|-------------------------|-----------------------|
    --3--------3---3-3------|--5--------5---5-5S------|--10------------L--10--|
    ------------------------|-------------------------|-----------------------|


    Q. E H Q. S S S S E S S E Q. S S S S E S S E
    ---------------------|----------------------------|----------------------------|
    ---------------------|----------------------------|----------------------------|
    --7------7--5--------|--3--------3---3-3-------3--|--3--------3---3-3-------3--|
    ---------------------|--------------------3h-5----|--------------------3h-5----|


    ^
    Q. S S S S Q. H. E E Q. E H
    -------------------------|-----------------------|---------------------|
    -------------------------|-----------------------|---------------------|
    --5--------5---5-5S------|--10------------L--10--|--7------7--5--------|
    -------------------------|-----------------------|---------------------|


    E E E E E E E E E E E E E E E E
    --------------------------|--------------------------|
    --------------------------|--------------------------|
    --3--3--3--3--3--3--3--3--|--3--3--3--3--3--3--3--3--|
    --------------------------|--------------------------|


    E E E E E E E E E E E E E E E E
    --------------------------|----------------------------------|
    --------------------------|----------------------------------|
    --8--8--8--8--8--8--8--8--|--10--10--10--10--10--10--10--10--|
    --------------------------|----------------------------------|


    E E E E E E E E E E E E E E E E
    --------------------------|----------------------------------|-----|-----|
    --------------------------|----------------------------------|-----|-----|
    --8--8--8--8--8--8--8--8--|--10--10--10--10--10--10--10--10--|-----|-----|
    --------------------------|----------------------------------|-----|-----|


    -----||
    -----||
    -----||
    -----||
     
  5. GoodYear

    GoodYear Registrierter Benutzer

    Im Board seit:
    20.12.04
    Zuletzt hier:
    17.08.15
    Beiträge:
    1.923
    Ort:
    Köln
    Zustimmungen:
    14
    Kekse:
    2.229
    Erstellt: 22.06.07   #5
    Du meinst so? Für sowas ist die "code"-Funktion ganz praktisch.

    Die Tabs muss ich nachher mal ausprobieren, interessiert mich auch.

    Gruß,

    Goodyear

    Code:
    E E E E E E E E E E E E E E E E 
    --------------------------|----------------------------------|
    --------------------------|----------------------------------|
    --8--8--8--8--8--8--8--8--|--10--10--10--10--10--10--10--10--|
    --------------------------|----------------------------------|
    
    
    E E E E E E E E E E E E E E E E 
    --------------------------|-----------------------------------|
    --------------------------|-----------------------------------|
    --8--8--8--8--8--8--8--8--|--10--10--10--10--10--10--10--10\--|
    --------------------------|-----------------------------------|
    
    
    Q. S S S S Q. Q. S S S S Q. Q. S S S S Q. 
    ------------------------|------------------------|-------------------------|
    ------------------------|------------------------|-------------------------|
    --3--------3---3-3------|--3--------3---3-3------|--5--------5---5-5S------|
    ------------------------|------------------------|-------------------------|
    
    
    ^ 
    H. E E Q. E H Q. S S S S Q. 
    -----------------------|---------------------|------------------------|
    -----------------------|---------------------|------------------------|
    --10------------L--10--|--7------7--5--------|--3--------3---3-3------|
    -----------------------|---------------------|------------------------|
    
    
    ^ 
    Q. S S S S E S S E Q. S S S S Q. H. E E 
    ----------------------------|-------------------------|-----------------------|
    ----------------------------|-------------------------|-----------------------|
    --3--------3---3-3-------3--|--5--------5---5-5S------|--10------------L--10--|
    --------------------3h-5----|-------------------------|-----------------------|
    
    
    Q. E H Q. S S S S E S S E Q. S S S S E S S E 
    ---------------------|----------------------------|----------------------------|
    ---------------------|----------------------------|----------------------------|
    --7------7--5--------|--3--------3---3-3-------3--|--3--------3---3-3-------3--|
    ---------------------|--------------------3h-5----|--------------------3h-5----|
    
    
    ^ 
    Q. S S S S Q. H. E E Q. E H 
    -------------------------|-----------------------|---------------------|
    -------------------------|-----------------------|---------------------|
    --5--------5---5-5S------|--10------------L--10--|--7------7--5--------|
    -------------------------|-----------------------|---------------------|
    
    
    E E E E E E E E E E E E E E E E 
    --------------------------|----------------------------------|
    --------------------------|----------------------------------|
    --8--8--8--8--8--8--8--8--|--10--10--10--10--10--10--10--10--|
    --------------------------|----------------------------------|
    
    
    E E E E E E E E E E E E E E E E 
    --------------------------|----------------------------------|
    --------------------------|----------------------------------|
    --8--8--8--8--8--8--8--8--|--10--10--10--10--10--10--10--10--|
    --------------------------|----------------------------------|
    
    
    E E E E E E E E E E E E E E E E 
    --------------------------|----------------------------------|
    --------------------------|----------------------------------|
    --8--8--8--8--8--8--8--8--|--10--10--10--10--10--10--10--10--|
    --------------------------|----------------------------------|
    
    
    E E E E E E E E E E E E E E E E 
    --------------------------|-----------------------------------|
    --------------------------|-----------------------------------|
    --8--8--8--8--8--8--8--8--|--10--10--10--10--10--10--10--10\--|
    --------------------------|-----------------------------------|
    
    
    Q. S S S S Q. Q. S S S S E S S E Q. S S S S Q. 
    ------------------------|----------------------------|-------------------------|
    ------------------------|----------------------------|-------------------------|
    --3--------3---3-3------|--3--------3---3-3-------3--|--5--------5---5-5S------|
    ------------------------|--------------------3h-5----|-------------------------|
    
    
    ^ 
    H. E E Q. E H Q. S S S S Q. 
    -----------------------|---------------------|------------------------|
    -----------------------|---------------------|------------------------|
    --10------------L--10--|--7------7--5--------|--3--------3---3-3------|
    -----------------------|---------------------|------------------------|
    
    
    ^ 
    Q. S S S S E S S E Q. S S S S Q. H. E E 
    ----------------------------|-------------------------|-----------------------|
    ----------------------------|-------------------------|-----------------------|
    --3--------3---3-3-------3--|--5--------5---5-5S------|--10------------L--10--|
    --------------------3h-5----|-------------------------|-----------------------|
    
    
    Q. E H E E E E E E E E 
    ---------------------|-----------|-----------|--------------------------|
    ---------------------|-----------|-----------|--------------------------|
    --7------7--5--------|-----------|-----------|--8--8--8--8--8--8--8--8--|
    ---------------------|-----------|-----------|--------------------------|
    
    
    E E E E E E E E E E E E E E E E 
    ----------------------------------|--------------------------|
    ----------------------------------|--------------------------|
    --10--10--10--10--10--10--10--10--|--8--8--8--8--8--8--8--8--|
    ----------------------------------|--------------------------|
    
    
    E E E E E E E E E E E E E E E E 
    -----------------------------------|--------------------------|
    -----------------------------------|--------------------------|
    --10--10--10--10--10--10--10--10\--|--3--3--3--3--3--3--3--3--|
    -----------------------------------|--------------------------|
    
    
    E E E E E E E E E E E E E E E E 
    --------------------------|--------------------------|
    --------------------------|--------------------------|
    --3--3--3--3--3--3--3--3--|--------------------------|
    --------------------------|--1--1--1--1--1--1--1--1--|
    
    
    E E E E E E E E E E E E E E E E 
    --------------------------|--------------------------|
    --------------------------|--------------------------|
    --------------------------|--------------------------|
    --1--1--1--1--1--1--1--1--|--3--3--3--3--3--3--3--3--|
    
    
    E E E E E E E E E E E E E E E E 
    --------------------------|--------------------------|
    --------------------------|--------------------------|
    --------------------------|--8--8--8--8--8--8--8--8--|
    --3--3--3--3--3--3--3--3--|--------------------------|
    
    
    E E E E E E E E E E E E E E E E 
    ----------------------------------|--------------------------|
    ----------------------------------|--------------------------|
    --10--10--10--10--10--10--10--10--|--8--8--8--8--8--8--8--8--|
    ----------------------------------|--------------------------|
    
    
    E E E E E E E E E E E E E E E E 
    ----------------------------------|--------------------------|
    ----------------------------------|--------------------------|
    --10--10--10--10--10--10--10--10--|--8--8--8--8--8--8--8--8--|
    ----------------------------------|--------------------------|
    
    
    E E E E E E E E E E E E E E E E 
    ----------------------------------|--------------------------|
    ----------------------------------|--------------------------|
    --10--10--10--10--10--10--10--10--|--8--8--8--8--8--8--8--8--|
    ----------------------------------|--------------------------|
    
    
    E E E E S E. Q Q. S S S S Q. 
    ------------------------------|------------------------|
    ------------------------------|------------------------|
    --10--10--10--10--10----------|--3--------3---3-3------|
    ------------------------------|------------------------|
    
    
    ^ 
    Q. S S S S Q. Q. S S S S Q. H. E E 
    ------------------------|-------------------------|-----------------------|
    ------------------------|-------------------------|-----------------------|
    --3--------3---3-3------|--5--------5---5-5S------|--10------------L--10--|
    ------------------------|-------------------------|-----------------------|
    
    
    Q. E H Q. S S S S E S S E Q. S S S S E S S E 
    ---------------------|----------------------------|----------------------------|
    ---------------------|----------------------------|----------------------------|
    --7------7--5--------|--3--------3---3-3-------3--|--3--------3---3-3-------3--|
    ---------------------|--------------------3h-5----|--------------------3h-5----|
    
    
    ^ 
    Q. S S S S Q. H. E E Q. E H 
    -------------------------|-----------------------|---------------------|
    -------------------------|-----------------------|---------------------|
    --5--------5---5-5S------|--10------------L--10--|--7------7--5--------|
    -------------------------|-----------------------|---------------------|
    
    
    E E E E E E E E E E E E E E E E 
    --------------------------|--------------------------|
    --------------------------|--------------------------|
    --3--3--3--3--3--3--3--3--|--3--3--3--3--3--3--3--3--|
    --------------------------|--------------------------|
    
    
    E E E E E E E E E E E E E E E E 
    --------------------------|----------------------------------|
    --------------------------|----------------------------------|
    --8--8--8--8--8--8--8--8--|--10--10--10--10--10--10--10--10--|
    --------------------------|----------------------------------|
    
    
    E E E E E E E E E E E E E E E E 
    --------------------------|----------------------------------|-----|-----|
    --------------------------|----------------------------------|-----|-----|
    --8--8--8--8--8--8--8--8--|--10--10--10--10--10--10--10--10--|-----|-----|
    --------------------------|----------------------------------|-----|-----|
    
     
  6. Punka

    Punka Threadersteller Registrierter Benutzer

    Im Board seit:
    30.08.06
    Zuletzt hier:
    22.09.16
    Beiträge:
    3.115
    Ort:
    Bielefeld
    Zustimmungen:
    44
    Kekse:
    3.486
    Erstellt: 22.06.07   #6
    Danke. :)

    Ich würde nicht fragen, wenn ich es nicht selbst versucht hätte. Warum geht hier immer jeder davon aus, dass man es nur auf andere abwälzt?

    Aber was bedeutet das L im 8. Takt?
     
  7. Tobbse

    Tobbse Registrierter Benutzer

    Im Board seit:
    10.12.05
    Zuletzt hier:
    5.03.12
    Beiträge:
    698
    Ort:
    Hemer
    Zustimmungen:
    2
    Kekse:
    597
    Erstellt: 22.06.07   #7
    mh, kam halt mir nur so vor^^ was das L genau heißt weiß ich nicht, in der legende die ich bei anderen tabs gesehen hab stand da "tied note" aber ich kann mir darunter nichts vorstellen, da tied soviel wie aufgebunden oder geschnürt heißt.

    @goodyear: man lernt nie aus^^
     
Die Seite wird geladen...

mapping