Three lions 98 - Footballs coming home

von Hebbel, 05.04.05.

  1. Hebbel

    Hebbel Registrierter Benutzer

    Im Board seit:
    17.08.04
    Zuletzt hier:
    30.08.12
    Beiträge:
    373
    Ort:
    Papenburg
    Zustimmungen:
    0
    Kekse:
    38
    Erstellt: 05.04.05   #1
    Wie schon die überschrift sagt, suche basstabs zum bekannten footballs comming home.. von den three lions 98. wer welche hat plz posten oder an tobias.hebelmann@web.de schicken... oder link oder wat weiß ich... danke leutz
     
  2. Hebbel

    Hebbel Threadersteller Registrierter Benutzer

    Im Board seit:
    17.08.04
    Zuletzt hier:
    30.08.12
    Beiträge:
    373
    Ort:
    Papenburg
    Zustimmungen:
    0
    Kekse:
    38
    Erstellt: 05.04.05   #2
    naja habs mir rausgehört..^^
     
  3. deejot

    deejot Registrierter Benutzer

    Im Board seit:
    19.08.03
    Zuletzt hier:
    2.12.16
    Beiträge:
    332
    Zustimmungen:
    2
    Kekse:
    15
    Erstellt: 06.04.05   #3
    Na dann poste mal...
     
  4. Hebbel

    Hebbel Threadersteller Registrierter Benutzer

    Im Board seit:
    17.08.04
    Zuletzt hier:
    30.08.12
    Beiträge:
    373
    Ort:
    Papenburg
    Zustimmungen:
    0
    Kekse:
    38
    Erstellt: 06.04.05   #4
    mach ich morgen... schaff des heut wahrscheinlich net mehr, da tabs noch im proberaum liegen. aber ich machs ...
     
  5. Hebbel

    Hebbel Threadersteller Registrierter Benutzer

    Im Board seit:
    17.08.04
    Zuletzt hier:
    30.08.12
    Beiträge:
    373
    Ort:
    Papenburg
    Zustimmungen:
    0
    Kekse:
    38
    Erstellt: 07.04.05   #5
    Three lions '98

    8 takte Gitarre, dann:

    Intro:

    G|----------------8-5-8-5------|-----------------|
    D|-----------------------8-5---|-----------------|
    A|------8--6-----------------6-|---------6-6-6-6-|
    E|--4--------------------------|-4-4-4-4---------|

    Chorus:

    G|------------------------------------------------|
    D|------------------------------------------------|
    A|------------------1-1---6-6---5-5---3-3---1-1---|
    E|-4-4---3-3---1-1--------------------------------| (2x)

    Vers:

    G|---------------------------|
    D|---------------------------|
    A|------1-1---6-6---3-3-3-3--|
    E|-1-1-----------------------|

    Chorus

    Vers

    Chorus

    Bridge:
    (2x) dann:
    G|-------------------------------|---------------------|
    D|-------------------------------|---------------------|
    A|----------4----------------3---|----------4----------|
    E|--1---------------3------------|--1---------------3--|

    Intro

    Chorus

    Outro (Chorus)
     
Die Seite wird geladen...

mapping