TREMOLO bei Kings of the carnival creation

von METALHEAD, 11.02.05.

  1. METALHEAD

    METALHEAD Registrierter Benutzer

    Im Board seit:
    05.10.03
    Zuletzt hier:
    12.02.16
    Beiträge:
    95
    Zustimmungen:
    0
    Kekse:
    10
    Erstellt: 11.02.05   #1
    Ich hab' die gleiche Frage schoneinmal vor längerem reingestellt, aber keine antwort erhalten.

    Kann einer von euch diese Stelle aus Kings of the carnival creation von Dimmu Borgir sauber spielen?

    Riff A
    H=240
    Bm
    4/2
    TP TP TP TP TP TP TP TP
    H H H H H H H H
    ||----------------------|----------------------||
    ||o---------------------|-2--------------3----o||
    ||------------4---------|----------------------||
    ||-------4---------4----|------4----4----------||
    ||o-2-------------------|---------------------o||
    ||----------------------|----------------------||


    Dm
    TP TP TP TP TP TP TP TP
    H H H H H H H H
    |-||----------------------|----------------------||
    |-||o---------------------|-5--------------6----o||
    |-||------------7---------|----------------------||
    |-||-------7---------7----|------7----7----------||
    |-||o-5-------------------|---------------------o||
    |-||----------------------|----------------------||


    sämtliche noten werden hier im Tremoloanschlag gespielt.

    Würde mich freuen wenn jemand, der diese Technik beherrscht mal darüber berichtet wie es genau funktioniert.

    Im Anhang sind nochmal die noten als Scrennshot aus dem Powertabeditor.
     
  2. METALHEAD

    METALHEAD Threadersteller Registrierter Benutzer

    Im Board seit:
    05.10.03
    Zuletzt hier:
    12.02.16
    Beiträge:
    95
    Zustimmungen:
    0
    Kekse:
    10
    Erstellt: 11.02.05   #2
    oh vergesssen... hier der screenshot
     

    Anhänge:

Die Seite wird geladen...

mapping